  0
SECTION
  2
HEADER
  9
$ACADVER
  1
AC1015
  9
$ACADMAINTVER
 70
     6
  9
$DWGCODEPAGE
  3
ANSI_1254
  9
$INSBASE
 10
0.0
 20
0.0
 30
0.0
  9
$EXTMIN
 10
0.0
 20
0.0
 30
0.0
  9
$EXTMAX
 10
279.4
 20
215.9
 30
0.0
  9
$LIMMIN
 10
0.0
 20
0.0
  9
$LIMMAX
 10
279.4
 20
215.9
  9
$ORTHOMODE
 70
     0
  9
$REGENMODE
 70
     1
  9
$FILLMODE
 70
     1
  9
$QTEXTMODE
 70
     0
  9
$MIRRTEXT
 70
     1
  9
$LTSCALE
 40
1.0
  9
$ATTMODE
 70
     1
  9
$TEXTSIZE
 40
3.5
  9
$TRACEWID
 40
1.0
  9
$TEXTSTYLE
  7
Standard
  9
$CLAYER
  8
0
  9
$CELTYPE
  6
ByLayer
  9
$CECOLOR
 62
   256
  9
$CELTSCALE
 40
1.0
  9
$DISPSILH
 70
     0
  9
$DIMSCALE
 40
1.0
  9
$DIMASZ
 40
3.5
  9
$DIMEXO
 40
1.0
  9
$DIMDLI
 40
3.75
  9
$DIMRND
 40
0.0
  9
$DIMDLE
 40
0.0
  9
$DIMEXE
 40
1.0
  9
$DIMTP
 40
0.0
  9
$DIMTM
 40
0.0
  9
$DIMTXT
 40
3.5
  9
$DIMCEN
 40
2.5
  9
$DIMTSZ
 40
0.0
  9
$DIMTOL
 70
     0
  9
$DIMLIM
 70
     0
  9
$DIMTIH
 70
     1
  9
$DIMTOH
 70
     1
  9
$DIMSE1
 70
     0
  9
$DIMSE2
 70
     0
  9
$DIMTAD
 70
     1
  9
$DIMZIN
 70
     0
  9
$DIMBLK
  1

  9
$DIMASO
 70
     1
  9
$DIMSHO
 70
     1
  9
$DIMPOST
  1

  9
$DIMAPOST
  1

  9
$DIMALT
 70
     0
  9
$DIMALTD
 70
     3
  9
$DIMALTF
 40
0.0393700787
  9
$DIMLFAC
 40
1.0
  9
$DIMTOFL
 70
     1
  9
$DIMTVP
 40
0.0
  9
$DIMTIX
 70
     0
  9
$DIMSOXD
 70
     0
  9
$DIMSAH
 70
     0
  9
$DIMBLK1
  1

  9
$DIMBLK2
  1

  9
$DIMSTYLE
  2
ISO-25
  9
$DIMCLRD
 70
     0
  9
$DIMCLRE
 70
     0
  9
$DIMCLRT
 70
     0
  9
$DIMTFAC
 40
1.0
  9
$DIMGAP
 40
1.524
  9
$DIMJUST
 70
     0
  9
$DIMSD1
 70
     0
  9
$DIMSD2
 70
     0
  9
$DIMTOLJ
 70
     0
  9
$DIMTZIN
 70
     0
  9
$DIMALTZ
 70
     0
  9
$DIMALTTZ
 70
     0
  9
$DIMUPT
 70
     0
  9
$DIMDEC
 70
     2
  9
$DIMTDEC
 70
     2
  9
$DIMALTU
 70
     2
  9
$DIMALTTD
 70
     3
  9
$DIMTXSTY
  7
Standard
  9
$DIMAUNIT
 70
     0
  9
$DIMADEC
 70
     2
  9
$DIMALTRND
 40
0.0
  9
$DIMAZIN
 70
     0
  9
$DIMDSEP
 70
    44
  9
$DIMATFIT
 70
     3
  9
$DIMFRAC
 70
     0
  9
$DIMLDRBLK
  1

  9
$DIMLUNIT
 70
     2
  9
$DIMLWD
 70
    -2
  9
$DIMLWE
 70
    -2
  9
$DIMTMOVE
 70
     0
  9
$LUNITS
 70
     2
  9
$LUPREC
 70
     2
  9
$SKETCHINC
 40
1.0
  9
$FILLETRAD
 40
10.0
  9
$AUNITS
 70
     0
  9
$AUPREC
 70
     2
  9
$MENU
  1
.
  9
$ELEVATION
 40
0.0
  9
$PELEVATION
 40
0.0
  9
$THICKNESS
 40
0.0
  9
$LIMCHECK
 70
     0
  9
$CHAMFERA
 40
0.0
  9
$CHAMFERB
 40
0.0
  9
$CHAMFERC
 40
0.0
  9
$CHAMFERD
 40
0.0
  9
$SKPOLY
 70
     0
  9
$TDCREATE
 40
2458985.721520463
  9
$TDUCREATE
 40
2458985.596520463
  9
$TDUPDATE
 40
2458985.721520752
  9
$TDUUPDATE
 40
2458985.596520752
  9
$TDINDWG
 40
0.0000000116
  9
$TDUSRTIMER
 40
0.0000000116
  9
$USRTIMER
 70
     1
  9
$ANGBASE
 50
0.0
  9
$ANGDIR
 70
     0
  9
$PDMODE
 70
     0
  9
$PDSIZE
 40
-1.0
  9
$PLINEWID
 40
0.0
  9
$SPLFRAME
 70
     0
  9
$SPLINETYPE
 70
     6
  9
$SPLINESEGS
 70
     8
  9
$HANDSEED
  5
E2
  9
$SURFTAB1
 70
     6
  9
$SURFTAB2
 70
     6
  9
$SURFTYPE
 70
     6
  9
$SURFU
 70
     6
  9
$SURFV
 70
     6
  9
$UCSBASE
  2

  9
$UCSNAME
  2

  9
$UCSORG
 10
0.0
 20
0.0
 30
0.0
  9
$UCSXDIR
 10
1.0
 20
0.0
 30
0.0
  9
$UCSYDIR
 10
0.0
 20
1.0
 30
0.0
  9
$UCSORTHOREF
  2

  9
$UCSORTHOVIEW
 70
     0
  9
$UCSORGTOP
 10
0.0
 20
0.0
 30
0.0
  9
$UCSORGBOTTOM
 10
0.0
 20
0.0
 30
0.0
  9
$UCSORGLEFT
 10
0.0
 20
0.0
 30
0.0
  9
$UCSORGRIGHT
 10
0.0
 20
0.0
 30
0.0
  9
$UCSORGFRONT
 10
0.0
 20
0.0
 30
0.0
  9
$UCSORGBACK
 10
0.0
 20
0.0
 30
0.0
  9
$PUCSBASE
  2

  9
$PUCSNAME
  2

  9
$PUCSORG
 10
0.0
 20
0.0
 30
0.0
  9
$PUCSXDIR
 10
1.0
 20
0.0
 30
0.0
  9
$PUCSYDIR
 10
0.0
 20
1.0
 30
0.0
  9
$PUCSORTHOREF
  2

  9
$PUCSORTHOVIEW
 70
     0
  9
$PUCSORGTOP
 10
0.0
 20
0.0
 30
0.0
  9
$PUCSORGBOTTOM
 10
0.0
 20
0.0
 30
0.0
  9
$PUCSORGLEFT
 10
0.0
 20
0.0
 30
0.0
  9
$PUCSORGRIGHT
 10
0.0
 20
0.0
 30
0.0
  9
$PUCSORGFRONT
 10
0.0
 20
0.0
 30
0.0
  9
$PUCSORGBACK
 10
0.0
 20
0.0
 30
0.0
  9
$USERI1
 70
     0
  9
$USERI2
 70
     0
  9
$USERI3
 70
     0
  9
$USERI4
 70
     0
  9
$USERI5
 70
     0
  9
$USERR1
 40
0.0
  9
$USERR2
 40
0.0
  9
$USERR3
 40
0.0
  9
$USERR4
 40
0.0
  9
$USERR5
 40
0.0
  9
$WORLDVIEW
 70
     1
  9
$SHADEDGE
 70
     3
  9
$SHADEDIF
 70
    70
  9
$TILEMODE
 70
     1
  9
$MAXACTVP
 70
    64
  9
$PINSBASE
 10
0.0
 20
0.0
 30
0.0
  9
$PLIMCHECK
 70
     0
  9
$PEXTMIN
 10
1.0000000000E+20
 20
1.0000000000E+20
 30
1.0000000000E+20
  9
$PEXTMAX
 10
-1.0000000000E+20
 20
-1.0000000000E+20
 30
-1.0000000000E+20
  9
$PLIMMIN
 10
0.0
 20
0.0
  9
$PLIMMAX
 10
420.0
 20
297.0
  9
$UNITMODE
 70
     0
  9
$VISRETAIN
 70
     1
  9
$PLINEGEN
 70
     0
  9
$PSLTSCALE
 70
     1
  9
$TREEDEPTH
 70
  3020
  9
$CMLSTYLE
  2
Standard
  9
$CMLJUST
 70
     0
  9
$CMLSCALE
 40
20.0
  9
$PROXYGRAPHICS
 70
     1
  9
$MEASUREMENT
 70
     1
  9
$CELWEIGHT
370
    -1
  9
$ENDCAPS
280
     0
  9
$JOINSTYLE
280
     0
  9
$LWDISPLAY
290
     1
  9
$INSUNITS
 70
     4
  9
$HYPERLINKBASE
  1

  9
$STYLESHEET
  1

  9
$XEDIT
290
     1
  9
$CEPSNTYPE
380
     0
  9
$PSTYLEMODE
290
     1
  9
$FINGERPRINTGUID
  2
{7418b939-603b-493e-b218-3ea9a9d638f1}
  9
$VERSIONGUID
  2
{FAEB1C32-E019-11D5-929B-00C0DF256EC4}
  9
$EXTNAMES
290
     1
  9
$PSVPSCALE
 40
0.0
  9
$OLESTARTUP
290
     0
  0
ENDSEC
  0
SECTION
  2
CLASSES
  0
CLASS
  1
ACDBDICTIONARYWDFLT
  2
AcDbDictionaryWithDefault
  3
ObjectDBX Classes
 90
        0
280
     0
281
     0
  0
CLASS
  1
VISUALSTYLE
  2
AcDbVisualStyle
  3
ObjectDBX Classes
 90
     4095
280
     0
281
     0
  0
CLASS
  1
MATERIAL
  2
AcDbMaterial
  3
ObjectDBX Classes
 90
     1153
280
     0
281
     0
  0
CLASS
  1
SCALE
  2
AcDbScale
  3
ObjectDBX Classes
 90
     1153
280
     0
281
     0
  0
CLASS
  1
TABLESTYLE
  2
AcDbTableStyle
  3
ObjectDBX Classes
 90
     4095
280
     0
281
     0
  0
CLASS
  1
MLEADERSTYLE
  2
AcDbMLeaderStyle
  3
ACDB_MLEADERSTYLE_CLASS
 90
     4095
280
     0
281
     0
  0
CLASS
  1
SUN
  2
AcDbSun
  3
SCENEOE
 90
     1153
280
     0
281
     0
  0
CLASS
  1
ACDBPLACEHOLDER
  2
AcDbPlaceHolder
  3
ObjectDBX Classes
 90
        0
280
     0
281
     0
  0
CLASS
  1
LAYOUT
  2
AcDbLayout
  3
ObjectDBX Classes
 90
        0
280
     0
281
     0
  0
ENDSEC
  0
SECTION
  2
TABLES
  0
TABLE
  2
VPORT
  5
8
330
0
100
AcDbSymbolTable
 70
     1
  0
VPORT
  5
29
330
8
100
AcDbSymbolTableRecord
100
AcDbViewportTableRecord
  2
*Active
 70
     0
 10
0.0
 20
0.0
 11
1.0
 21
1.0
 12
139.7
 22
107.95
 13
0.0
 23
0.0
 14
10.0
 24
10.0
 15
10.0
 25
10.0
 16
0.0
 26
0.0
 36
1.0
 17
0.0
 27
0.0
 37
0.0
 40
215.9
 41
1.2941176471
 42
50.0
 43
0.0
 44
0.0
 50
0.0
 51
0.0
 71
     0
 72
  2000
 73
     1
 74
     3
 75
     0
 76
     0
 77
     0
 78
     0
281
     0
 65
     1
110
0.0
120
0.0
130
0.0
111
1.0
121
0.0
131
0.0
112
0.0
122
1.0
132
0.0
 79
     0
146
0.0
  0
ENDTAB
  0
TABLE
  2
LTYPE
  5
5
330
0
100
AcDbSymbolTable
 70
     6
  0
LTYPE
  5
14
330
5
100
AcDbSymbolTableRecord
100
AcDbLinetypeTableRecord
  2
ByBlock
 70
     0
  3

 72
    65
 73
     0
 40
0.0
  0
LTYPE
  5
15
330
5
100
AcDbSymbolTableRecord
100
AcDbLinetypeTableRecord
  2
ByLayer
 70
     0
  3

 72
    65
 73
     0
 40
0.0
  0
LTYPE
  5
16
330
5
100
AcDbSymbolTableRecord
100
AcDbLinetypeTableRecord
  2
Continuous
 70
     0
  3
Solid line
 72
    65
 73
     0
 40
0.0
  0
LTYPE
  5
6E
330
5
100
AcDbSymbolTableRecord
100
AcDbLinetypeTableRecord
  2
HIDDEN
 70
     0
  3
Hidden __ __ __ __ __ __ __ __ __ __ __ __ __ __
 72
    65
 73
     2
 40
1.905
 49
1.27
 74
     0
 49
-0.635
 74
     0
  0
LTYPE
  5
6F
330
5
100
AcDbSymbolTableRecord
100
AcDbLinetypeTableRecord
  2
PHANTOM
 70
     0
  3
Phantom ______  __  __  ______  __  __  ______
 72
    65
 73
     6
 40
12.7
 49
6.35
 74
     0
 49
-1.27
 74
     0
 49
1.27
 74
     0
 49
-1.27
 74
     0
 49
1.27
 74
     0
 49
-1.27
 74
     0
  0
LTYPE
  5
70
330
5
100
AcDbSymbolTableRecord
100
AcDbLinetypeTableRecord
  2
CENTER
 70
     0
  3
Center ____ _ ____ _ ____ _ ____ _ ____ _ ____
 72
    65
 73
     4
 40
10.16
 49
6.35
 74
     0
 49
-1.27
 74
     0
 49
1.27
 74
     0
 49
-1.27
 74
     0
  0
LTYPE
  5
71
330
5
100
AcDbSymbolTableRecord
100
AcDbLinetypeTableRecord
  2
CENTERX2
 70
     0
  3
Center (2x) ________  __  ________  __  _____
 72
    65
 73
     4
 40
20.32
 49
12.7
 74
     0
 49
-2.54
 74
     0
 49
2.54
 74
     0
 49
-2.54
 74
     0
  0
LTYPE
  5
72
330
5
100
AcDbSymbolTableRecord
100
AcDbLinetypeTableRecord
  2
DOT2
 70
     0
  3
Dot (.5x) ........................................
 72
    65
 73
     2
 40
0.635
 49
0.0
 74
     0
 49
-0.635
 74
     0
  0
ENDTAB
  0
TABLE
  2
LAYER
  5
2
330
0
100
AcDbSymbolTable
 70
    17
  0
LAYER
  5
10
330
2
100
AcDbSymbolTableRecord
100
AcDbLayerTableRecord
  2
0
 70
     0
 62
     7
  6
Continuous
370
    -3
390
F
  0
LAYER
  5
73
330
2
100
AcDbSymbolTableRecord
100
AcDbLayerTableRecord
  2
FORMAT
 70
     0
 62
     7
  6
Continuous
370
    -3
390
F
  0
LAYER
  5
74
330
2
100
AcDbSymbolTableRecord
100
AcDbLayerTableRecord
  2
YARDIMCI_GEOMETRI
 70
     0
 62
    -6
  6
Continuous
290
     0
370
    -3
390
F
  0
LAYER
  5
75
330
2
100
AcDbSymbolTableRecord
100
AcDbLayerTableRecord
  2
SAYFA_CERCEVESI
 70
     0
 62
     7
  6
Continuous
370
    25
390
F
  0
LAYER
  5
76
330
2
100
AcDbSymbolTableRecord
100
AcDbLayerTableRecord
  2
ANTET
 70
     0
 62
     7
  6
Continuous
370
    -3
390
F
  0
LAYER
  5
77
330
2
100
AcDbSymbolTableRecord
100
AcDbLayerTableRecord
  2
OLCU
 70
     0
 62
   150
  6
Continuous
370
    -3
390
F
  0
LAYER
  5
78
330
2
100
AcDbSymbolTableRecord
100
AcDbLayerTableRecord
  2
METIN
 70
     0
 62
    96
  6
Continuous
370
    -3
390
F
  0
LAYER
  5
79
330
2
100
AcDbSymbolTableRecord
100
AcDbLayerTableRecord
  2
BALON
 70
     0
 62
     5
  6
Continuous
370
    -3
390
F
  0
LAYER
  5
7A
330
2
100
AcDbSymbolTableRecord
100
AcDbLayerTableRecord
  2
VURGU
 70
     0
 62
     7
  6
Continuous
370
    -3
390
F
  0
LAYER
  5
7B
330
2
100
AcDbSymbolTableRecord
100
AcDbLayerTableRecord
  2
SILIK
 70
     0
 62
     7
  6
Continuous
370
    -3
390
F
  0
LAYER
  5
7C
330
2
100
AcDbSymbolTableRecord
100
AcDbLayerTableRecord
  2
MODEL
 70
     0
 62
     7
  6
Continuous
370
    -3
390
F
  0
LAYER
  5
7D
330
2
100
AcDbSymbolTableRecord
100
AcDbLayerTableRecord
  2
DETAYLANDıRMA
 70
     0
 62
   190
  6
Continuous
370
    -3
390
F
  0
LAYER
  5
7E
330
2
100
AcDbSymbolTableRecord
100
AcDbLayerTableRecord
  2
TOLERANS
 70
     0
 62
   230
  6
Continuous
370
    -3
390
F
  0
LAYER
  5
7F
330
2
100
AcDbSymbolTableRecord
100
AcDbLayerTableRecord
  2
MERKEZ_CIZGILERI
 70
     0
 62
    30
  6
Continuous
370
    -3
390
F
  0
LAYER
  5
80
330
2
100
AcDbSymbolTableRecord
100
AcDbLayerTableRecord
  2
KESIT-DETAY_CIZGILERI
 70
     0
 62
     7
  6
Continuous
370
    -3
390
F
  0
LAYER
  5
81
330
2
100
AcDbSymbolTableRecord
100
AcDbLayerTableRecord
  2
\U+041E\U+0421\U+0415\U+0412\U+042B\U+0415
 70
     0
 62
     7
  6
Continuous
370
    -3
390
F
  0
LAYER
  5
82
330
2
100
AcDbSymbolTableRecord
100
AcDbLayerTableRecord
  2
\U+0412\U+041E\U+0414\U+042F\U+041D\U+042B\U+0415_\U+0417\U+041D\U+0410\U+041A\U+0418
 70
     0
 62
    11
  6
Continuous
370
    -3
390
F
  0
ENDTAB
  0
TABLE
  2
STYLE
  5
3
330
0
100
AcDbSymbolTable
 70
     1
  0
STYLE
  5
11
330
3
100
AcDbSymbolTableRecord
100
AcDbTextStyleTableRecord
  2
Standard
 70
     0
 40
0.0
 41
1.0
 50
0.0
 71
     0
 42
3.5
  3
txt
  4

  0
ENDTAB
  0
TABLE
  2
VIEW
  5
6
330
0
100
AcDbSymbolTable
 70
     0
  0
ENDTAB
  0
TABLE
  2
UCS
  5
7
330
0
100
AcDbSymbolTable
 70
     0
  0
ENDTAB
  0
TABLE
  2
APPID
  5
9
330
0
100
AcDbSymbolTable
 70
     1
  0
APPID
  5
12
330
9
100
AcDbSymbolTableRecord
100
AcDbRegAppTableRecord
  2
ACAD
 70
     0
  0
ENDTAB
  0
TABLE
  2
DIMSTYLE
  5
A
330
0
100
AcDbSymbolTable
 70
     1
100
AcDbDimStyleTable
  0
DIMSTYLE
105
27
330
A
100
AcDbSymbolTableRecord
100
AcDbDimStyleTableRecord
  2
ISO-25
 70
     0
 41
2.5
 42
0.625
 43
3.75
 44
1.25
 73
     0
 74
     0
 77
     1
 78
     8
140
2.5
141
2.5
143
0.0393700787
147
0.625
171
     3
172
     1
178
     0
271
     2
272
     2
274
     3
278
    44
283
     0
284
     8
340
11
  0
ENDTAB
  0
TABLE
  2
BLOCK_RECORD
  5
1
330
0
100
AcDbSymbolTable
 70
     3
  0
BLOCK_RECORD
  5
1F
330
1
100
AcDbSymbolTableRecord
100
AcDbBlockTableRecord
  2
*Model_Space
340
22
  0
BLOCK_RECORD
  5
1B
330
1
100
AcDbSymbolTableRecord
100
AcDbBlockTableRecord
  2
*Paper_Space
340
1E
  0
BLOCK_RECORD
  5
23
330
1
100
AcDbSymbolTableRecord
100
AcDbBlockTableRecord
  2
*Paper_Space0
340
26
  0
BLOCK_RECORD
  5
A7
330
1
100
AcDbSymbolTableRecord
100
AcDbBlockTableRecord
  2
SW_CENTERMARKSYMBOL_0
340
0
102
{BLKREFS
331
B2
102
}
  0
BLOCK_RECORD
  5
C7
330
1
100
AcDbSymbolTableRecord
100
AcDbBlockTableRecord
  2
SW_CENTERMARKSYMBOL_1
340
0
102
{BLKREFS
331
D2
102
}
  0
ENDTAB
  0
ENDSEC
  0
SECTION
  2
BLOCKS
  0
BLOCK
  5
20
330
1F
100
AcDbEntity
  8
0
100
AcDbBlockBegin
  2
*Model_Space
 70
     0
 10
0.0
 20
0.0
 30
0.0
  3
*Model_Space
  1

  0
ENDBLK
  5
21
330
1F
100
AcDbEntity
  8
0
100
AcDbBlockEnd
  0
BLOCK
  5
1C
330
1B
100
AcDbEntity
 67
     1
  8
0
100
AcDbBlockBegin
  2
*Paper_Space
 70
     0
 10
0.0
 20
0.0
 30
0.0
  3
*Paper_Space
  1

  0
ENDBLK
  5
1D
330
1B
100
AcDbEntity
 67
     1
  8
0
100
AcDbBlockEnd
  0
BLOCK
  5
24
330
23
100
AcDbEntity
  8
0
100
AcDbBlockBegin
  2
*Paper_Space0
 70
     0
 10
0.0
 20
0.0
 30
0.0
  3
*Paper_Space0
  1

  0
ENDBLK
  5
25
330
23
100
AcDbEntity
  8
0
100
AcDbBlockEnd
  0
BLOCK
  5
A8
330
A7
100
AcDbEntity
  8
0
100
AcDbBlockBegin
  2
SW_CENTERMARKSYMBOL_0
 70
     0
 10
0.0
 20
0.0
 30
0.0
  3
SW_CENTERMARKSYMBOL_0
  1

  0
LINE
  5
AA
330
A7
100
AcDbEntity
  8
FORMAT
 62
     0
100
AcDbLine
 10
0.0
 20
0.0
 30
0.0
 11
0.0
 21
2.5
 31
0.0
  0
LINE
  5
AB
330
A7
100
AcDbEntity
  8
FORMAT
 62
     0
100
AcDbLine
 10
0.0
 20
0.0
 30
0.0
 11
-2.5
 21
0.0
 31
0.0
  0
LINE
  5
AC
330
A7
100
AcDbEntity
  8
FORMAT
 62
     0
100
AcDbLine
 10
0.0
 20
0.0
 30
0.0
 11
0.0
 21
-2.5
 31
0.0
  0
LINE
  5
AD
330
A7
100
AcDbEntity
  8
FORMAT
 62
     0
100
AcDbLine
 10
0.0
 20
0.0
 30
0.0
 11
2.5
 21
0.0
 31
0.0
  0
LINE
  5
AE
330
A7
100
AcDbEntity
  8
FORMAT
 62
     0
100
AcDbLine
 10
0.0
 20
5.0
 30
0.0
 11
0.0
 21
160.0
 31
0.0
  0
LINE
  5
AF
330
A7
100
AcDbEntity
  8
FORMAT
 62
     0
100
AcDbLine
 10
-5.0
 20
0.0
 30
0.0
 11
-160.0
 21
0.0
 31
0.0
  0
LINE
  5
B0
330
A7
100
AcDbEntity
  8
FORMAT
 62
     0
100
AcDbLine
 10
0.0
 20
-5.0
 30
0.0
 11
0.0
 21
-160.0
 31
0.0
  0
LINE
  5
B1
330
A7
100
AcDbEntity
  8
FORMAT
 62
     0
100
AcDbLine
 10
5.0
 20
0.0
 30
0.0
 11
160.0
 21
0.0
 31
0.0
  0
ENDBLK
  5
A9
330
A7
100
AcDbEntity
  8
0
100
AcDbBlockEnd
  0
BLOCK
  5
C8
330
C7
100
AcDbEntity
  8
0
100
AcDbBlockBegin
  2
SW_CENTERMARKSYMBOL_1
 70
     0
 10
0.0
 20
0.0
 30
0.0
  3
SW_CENTERMARKSYMBOL_1
  1

  0
LINE
  5
CA
330
C7
100
AcDbEntity
  8
FORMAT
 62
     0
100
AcDbLine
 10
0.0
 20
0.0
 30
0.0
 11
0.0
 21
2.5
 31
0.0
  0
LINE
  5
CB
330
C7
100
AcDbEntity
  8
FORMAT
 62
     0
100
AcDbLine
 10
0.0
 20
0.0
 30
0.0
 11
-2.5
 21
0.0
 31
0.0
  0
LINE
  5
CC
330
C7
100
AcDbEntity
  8
FORMAT
 62
     0
100
AcDbLine
 10
0.0
 20
0.0
 30
0.0
 11
0.0
 21
-2.5
 31
0.0
  0
LINE
  5
CD
330
C7
100
AcDbEntity
  8
FORMAT
 62
     0
100
AcDbLine
 10
0.0
 20
0.0
 30
0.0
 11
2.5
 21
0.0
 31
0.0
  0
LINE
  5
CE
330
C7
100
AcDbEntity
  8
FORMAT
 62
     0
100
AcDbLine
 10
0.0
 20
5.0
 30
0.0
 11
0.0
 21
160.0
 31
0.0
  0
LINE
  5
CF
330
C7
100
AcDbEntity
  8
FORMAT
 62
     0
100
AcDbLine
 10
-5.0
 20
0.0
 30
0.0
 11
-160.0
 21
0.0
 31
0.0
  0
LINE
  5
D0
330
C7
100
AcDbEntity
  8
FORMAT
 62
     0
100
AcDbLine
 10
0.0
 20
-5.0
 30
0.0
 11
0.0
 21
-160.0
 31
0.0
  0
LINE
  5
D1
330
C7
100
AcDbEntity
  8
FORMAT
 62
     0
100
AcDbLine
 10
5.0
 20
0.0
 30
0.0
 11
160.0
 21
0.0
 31
0.0
  0
ENDBLK
  5
C9
330
C7
100
AcDbEntity
  8
0
100
AcDbBlockEnd
  0
ENDSEC
  0
SECTION
  2
ENTITIES
  0
LINE
  5
83
330
1F
100
AcDbEntity
  8
0
  6
Continuous
 62
     7
370
    25
100
AcDbLine
 10
-29.4611494822
 20
106.1549337602
 30
0.0
 11
-29.4611494822
 21
-77.6064245009
 31
0.0
  0
LINE
  5
84
330
1F
100
AcDbEntity
  8
0
  6
Continuous
 62
     7
370
    25
100
AcDbLine
 10
285.5388481336
 20
-77.6064245009
 30
0.0
 11
285.5388481336
 21
106.1549337602
 31
0.0
  0
ARC
  5
85
330
1F
100
AcDbEntity
  8
0
  6
Continuous
 62
     7
370
    25
100
AcDbCircle
 10
285.5388493257
 20
106.1549394254
 30
0.0
 40
315.0000000000001
100
AcDbArc
 50
135.0
 51
180.0
  0
LINE
  5
86
330
1F
100
AcDbEntity
  8
0
  6
Continuous
 62
     7
370
    25
100
AcDbLine
 10
197.6695317941
 20
463.7628944612
 30
0.0
 11
62.8002096134
 21
328.8935871816
 31
0.0
  0
LINE
  5
87
330
1F
100
AcDbEntity
  8
0
  6
Continuous
 62
     7
370
    25
100
AcDbLine
 10
285.5388481336
 20
106.1549337602
 30
0.0
 11
420.4081554132
 21
241.0242708421
 31
0.0
  0
LINE
  5
88
330
1F
100
AcDbEntity
  8
0
  6
Continuous
 62
     7
370
    25
100
AcDbLine
 10
128.0388493257
 20
-77.6064245009
 30
0.0
 11
285.5388481336
 21
-77.6064245009
 31
0.0
  0
LINE
  5
89
330
1F
100
AcDbEntity
  8
0
  6
Continuous
 62
     7
370
    25
100
AcDbLine
 10
-29.4611494822
 20
-77.6064245009
 30
0.0
 11
128.0388493257
 21
-77.6064245009
 31
0.0
  0
LWPOLYLINE
  5
8A
330
1F
100
AcDbEntity
  8
0
  6
Continuous
 62
     7
370
    25
100
AcDbPolyline
 90
       35
 70
   128
 43
0.0
 10
309.0388436037
 20
352.3935826517
 10
314.2982084471
 20
347.1342178083
 10
319.5458162742
 20
341.88659508
 10
324.7699845749
 20
336.6624267793
 10
329.9590606409
 20
331.4733656145
 10
335.1014513689
 20
326.3309748865
 10
340.1856828647
 20
321.2467582918
 10
345.2004004436
 20
316.2320109106
 10
350.1344431358
 20
311.2979682184
 10
354.976784082
 20
306.4556272722
 10
359.7166199404
 20
301.715806315
 10
364.3433708864
 20
297.089055369
 10
368.8467253166
 20
292.5857158399
 10
373.216610046
 20
288.2158013082
 10
377.4432946163
 20
283.9891167379
 10
381.5173465925
 20
279.9150796629
 10
385.4296762663
 20
276.0027499891
 10
389.171536656
 20
272.2608895994
 10
392.7345831114
 20
268.697843144
 10
396.1108882147
 20
265.3215380407
 10
399.292882176
 20
262.1395440794
 10
402.273501845
 20
259.1589244104
 10
405.0460715013
 20
256.386354754
 10
407.6044220644
 20
253.828004191
 10
409.9428314882
 20
251.4895947672
 10
412.0560843664
 20
249.376341889
 10
413.9394421297
 20
247.4929841257
 10
415.5887622553
 20
245.8436640001
 10
417.0002896505
 20
244.4321366048
 10
418.1709248739
 20
243.2615013815
 10
419.0980751234
 20
242.334351132
 10
419.7795946318
 20
241.6528316236
 10
420.2140528875
 20
241.2183733678
 10
420.4004068094
 20
241.032019446
 10
420.4081554132
 20
241.0242708421
  0
LWPOLYLINE
  5
8B
330
1F
100
AcDbEntity
  8
0
  6
Continuous
 62
     7
370
    25
100
AcDbPolyline
 90
       35
 70
   128
 43
0.0
 10
197.6695317941
 20
463.7628944612
 10
197.6772952991
 20
463.7551458574
 10
197.8636566716
 20
463.5687621332
 10
198.2980925756
 20
463.1343038774
 10
198.9796344357
 20
462.452784369
 10
199.9067623335
 20
461.5256937242
 10
201.0774050074
 20
460.3549988962
 10
202.4889473039
 20
458.9435013033
 10
204.1382525283
 20
457.2941811777
 10
206.0216251927
 20
455.4107936121
 10
208.1348706203
 20
453.2975705362
 10
210.4732800442
 20
450.9591611124
 10
213.031615706
 20
448.4008105493
 10
215.804192813
 20
445.6282408929
 10
218.7848050314
 20
442.6475914217
 10
221.9668138939
 20
439.4655974603
 10
225.3431115466
 20
436.089292357
 10
228.9061654526
 20
432.5262459016
 10
232.6480258423
 20
428.7843855119
 10
236.5603480655
 20
424.8720558382
 10
240.6344000417
 20
420.7980187631
 10
244.861084612
 20
416.5713341928
 10
249.2309767919
 20
412.2014494634
 10
253.734316321
 20
407.6981099344
 10
258.3610821682
 20
403.0713589883
 10
263.1009031254
 20
398.3315082288
 10
267.9432440716
 20
393.4891672826
 10
272.8772867637
 20
388.5551245905
 10
277.8920192438
 20
383.5404070116
 10
282.9762507397
 20
378.4561606145
 10
288.1186414676
 20
373.3137698866
 10
293.3077026325
 20
368.1247087217
 10
298.5318858343
 20
362.9005404211
 10
303.7794936615
 20
357.6529176927
 10
309.0388436037
 20
352.3935826517
  0
LINE
  5
8C
330
1F
100
AcDbEntity
  8
0
  6
Continuous
 62
     1
370
    25
100
AcDbLine
 10
-29.4611494822
 20
106.1549337602
 30
0.0
 11
285.5388481336
 21
106.1549337602
 31
0.0
  0
LWPOLYLINE
  5
8D
330
1F
100
AcDbEntity
  8
0
  6
Continuous
 62
     1
370
    25
100
AcDbPolyline
 90
       69
 70
   128
 43
0.0
 10
62.8002096134
 20
328.8935871816
 10
62.8312785345
 20
328.8625033594
 10
63.0797181445
 20
328.6140712
 10
63.5760460215
 20
328.1177433229
 10
64.3191445785
 20
327.3746522165
 10
65.3073672372
 20
326.3864370084
 10
66.538501175
 20
325.1553030706
 10
68.0098008531
 20
323.6839922166
 10
69.717988016
 20
321.9758125043
 10
71.6592442411
 20
320.0345488287
 10
73.8292444664
 20
317.8645523286
 10
76.2231383639
 20
315.4706509805
 10
78.835591318
 20
312.8582092023
 10
81.6607732492
 20
310.0330086446
 10
84.6923772412
 20
307.0013972021
 10
87.9236381667
 20
303.7701400018
 10
91.3473513144
 20
300.3464492059
 10
94.9558686632
 20
296.7379244066
 10
98.7411454486
 20
292.9526420332
 10
102.6947308498
 20
288.9990659452
 10
106.8078052419
 20
284.8859878278
 10
111.0711895096
 20
280.6225867963
 10
115.4753711241
 20
276.2184293962
 10
120.0105227696
 20
271.6832609869
 10
124.6665239966
 20
267.0272739626
 10
129.4329857853
 20
262.2608097292
 10
134.2992723155
 20
257.3945077158
 10
139.254524948
 20
252.4392755724
 10
144.2876864391
 20
247.4061103559
 10
149.3875269013
 20
242.306247542
 10
154.5426655727
 20
237.1511312223
 10
159.7415987569
 20
231.9522054887
 10
164.9727258998
 20
226.7210634447
 10
170.2243756669
 20
221.4694174028
 10
175.4848282951
 20
216.2089498735
 10
180.7423453945
 20
210.9514327741
 10
185.9851960259
 20
205.7085784174
 10
191.201682778
 20
200.4920991159
 10
196.3801641184
 20
195.3136177755
 10
201.5090841966
 20
190.1846976972
 10
206.576998921
 20
185.1167829729
 10
211.5725983101
 20
180.121198485
 10
216.4847362953
 20
175.2090604997
 10
221.3024530726
 20
170.3913362718
 10
226.0150049048
 20
165.6787844396
 10
230.6118641215
 20
161.0819252229
 10
235.0827712732
 20
156.6110106207
 10
239.4177649337
 20
152.2760244108
 10
243.6071667987
 20
148.0866225458
 10
247.641618939
 20
144.0521629549
 10
251.5121285039
 20
140.1816608406
 10
255.210067721
 20
136.4837290741
 10
258.7271589952
 20
132.9666377998
 10
262.0555717665
 20
129.6382101274
 10
265.1878852564
 20
126.5059115387
 10
268.117081018
 20
123.5767008758
 10
270.8366621452
 20
120.8571197486
 10
273.3405340629
 20
118.3532478309
 10
275.6231237369
 20
116.0706730581
 10
277.6793200689
 20
114.014461825
 10
279.5045484024
 20
112.1892334915
 10
281.0947407204
 20
110.5990560747
 10
282.4463356453
 20
109.2474611497
 10
283.5563231426
 20
108.1374736524
 10
284.4222296196
 20
107.2715671754
 10
285.0421030241
 20
106.6516788698
 10
285.4146022516
 20
106.2791945434
 10
285.5388481336
 20
106.1549337602
 10
285.5388481336
 20
106.1549337602
  0
LINE
  5
8E
330
1F
100
AcDbEntity
  8
0
  6
Continuous
 62
     7
370
    25
100
AcDbLine
 10
-619.7303272371
 20
352.3935826517
 30
0.0
 11
-619.7303272371
 21
217.5242455698
 31
0.0
  0
LINE
  5
8F
330
1F
100
AcDbEntity
  8
0
  6
Continuous
 62
     7
370
    25
100
AcDbLine
 10
-304.7303296213
 20
217.5242455698
 30
0.0
 11
-304.7303296213
 21
352.3935826517
 31
0.0
  0
LINE
  5
90
330
1F
100
AcDbEntity
  8
0
  6
Continuous
 62
     7
370
    25
100
AcDbLine
 10
-619.7303272371
 20
217.5242455698
 30
0.0
 11
-619.7303272371
 21
106.1549337602
 31
0.0
  0
LINE
  5
91
330
1F
100
AcDbEntity
  8
0
  6
Continuous
 62
     7
370
    25
100
AcDbLine
 10
-304.7303296213
 20
106.1549337602
 30
0.0
 11
-304.7303296213
 21
217.5242455698
 31
0.0
  0
LINE
  5
92
330
1F
100
AcDbEntity
  8
0
  6
Continuous
 62
     7
370
    25
100
AcDbLine
 10
-619.7303272371
 20
106.1549337602
 30
0.0
 11
-619.7303272371
 21
-77.6064245009
 31
0.0
  0
LINE
  5
93
330
1F
100
AcDbEntity
  8
0
  6
Continuous
 62
     7
370
    25
100
AcDbLine
 10
-304.7303296213
 20
-77.6064245009
 30
0.0
 11
-304.7303296213
 21
106.1549337602
 31
0.0
  0
LWPOLYLINE
  5
94
330
1F
100
AcDbEntity
  8
0
  6
Continuous
 62
     7
370
    25
100
AcDbPolyline
 90
      134
 70
   128
 43
0.0
 10
-619.7303272371
 20
352.3935826517
 10
-619.5546127443
 20
347.1342178083
 10
-619.0278268938
 20
341.88659508
 10
-618.1511766796
 20
336.6624267793
 10
-616.9266141539
 20
331.4733656145
 10
-615.3568513279
 20
326.3309748865
 10
-613.4454048757
 20
321.2467582918
 10
-611.1965514307
 20
316.2320109106
 10
-608.6152828817
 20
311.2979682184
 10
-605.7073659782
 20
306.4556272722
 10
-602.4793125276
 20
301.715806315
 10
-598.9382899885
 20
297.089055369
 10
-595.0922406797
 20
292.5857158399
 10
-590.9497029667
 20
288.2158013082
 10
-586.5199602728
 20
283.9891167379
 10
-581.8128697162
 20
279.9150796629
 10
-576.838944066
 20
276.0027499891
 10
-571.6092846875
 20
272.2608895994
 10
-566.1355517392
 20
268.697843144
 10
-560.4299716239
 20
265.3215380407
 10
-554.5052699332
 20
262.1395440794
 10
-548.3746639972
 20
259.1589244104
 10
-542.0518330817
 20
256.386354754
 10
-535.5508960371
 20
253.828004191
 10
-528.8863516931
 20
251.4895947672
 10
-522.0730676834
 20
249.376341889
 10
-515.1262543683
 20
247.4929841257
 10
-508.06140523
 20
245.8436640001
 10
-500.8942931478
 20
244.4321366048
 10
-493.6409033422
 20
243.2615013815
 10
-486.3174277877
 20
242.334351132
 10
-478.940201882
 20
241.6528316236
 10
-471.5256914084
 20
241.2183733678
 10
-464.0904387512
 20
241.032019446
 10
-456.6510351894
 20
241.0941572881
 10
-449.2240817805
 20
241.4046378828
 10
-441.82614978
 20
241.9627757764
 10
-434.4737473463
 20
242.7673490739
 10
-427.183281589
 20
243.8165100313
 10
-419.9710189884
 20
245.1079638696
 10
-412.853054661
 20
246.6388197637
 10
-405.8452657943
 20
248.4056504465
 10
-398.9632986073
 20
250.4045220113
 10
-392.2225050216
 20
252.63096411
 10
-385.6379203086
 20
255.0800295568
 10
-379.2242519145
 20
257.7462347246
 10
-372.9957975035
 20
260.6236191488
 10
-366.9664598589
 20
263.7058051324
 10
-361.1496947293
 20
266.9858487344
 10
-355.5584810262
 20
270.4565079904
 10
-350.2052910213
 20
274.1099746919
 10
-345.1020754461
 20
277.9381426073
 10
-340.2602187877
 20
281.9324584699
 10
-335.6905169372
 20
286.0839815832
 10
-331.4031846409
 20
290.3834434248
 10
-327.4077809935
 20
294.8213072515
 10
-323.7132168894
 20
299.3876488901
 10
-320.3277326708
 20
304.0722461439
 10
-317.2588981275
 20
308.8646682001
 10
-314.5135379915
 20
313.7542160249
 10
-312.0978064423
 20
318.7299819685
 10
-310.0170678978
 20
323.7808795667
 10
-308.2759715204
 20
328.8956137395
 10
-306.8784214144
 20
334.0627999998
 10
-305.8275170212
 20
339.2708750463
 10
-305.1256127243
 20
344.5082159734
 10
-304.7742582445
 20
349.7631700731
 10
-304.7742582445
 20
355.0239952303
 10
-305.1256127243
 20
360.2789493299
 10
-305.8275170212
 20
365.516290257
 10
-306.8784214144
 20
370.7243653036
 10
-308.2759715204
 20
375.8915217615
 10
-310.0170678978
 20
381.0062559343
 10
-312.0978064423
 20
386.0571535326
 10
-314.5135379915
 20
391.0329194761
 10
-317.2588981275
 20
395.9224971033
 10
-320.3277326708
 20
400.7149191595
 10
-323.7132168894
 20
405.3995164133
 10
-327.4077809935
 20
409.9658282495
 10
-331.4031846409
 20
414.4036920763
 10
-335.6905169372
 20
418.7031837202
 10
-340.2602187877
 20
422.8547366357
 10
-345.1020754461
 20
426.8490226961
 10
-350.2052910213
 20
430.6771906114
 10
-355.5584810262
 20
434.3306573129
 10
-361.1496947293
 20
437.8013165689
 10
-366.9664598589
 20
441.0813601709
 10
-372.9957975035
 20
444.1635163522
 10
-379.2242519145
 20
447.0409305788
 10
-385.6379203086
 20
449.7071059442
 10
-392.2225050216
 20
452.1562011934
 10
-398.9632986073
 20
454.3826134897
 10
-405.8452657943
 20
456.3815148569
 10
-412.853054661
 20
458.1483157373
 10
-419.9710189884
 20
459.6792014337
 10
-427.183281589
 20
460.9706552721
 10
-434.4737473463
 20
462.0198162294
 10
-441.82614978
 20
462.8243597246
 10
-449.2240817805
 20
463.3824976183
 10
-456.6510351894
 20
463.6929782129
 10
-464.0904387512
 20
463.7551458574
 10
-471.5256914084
 20
463.5687621332
 10
-478.940201882
 20
463.1343038774
 10
-486.3174277877
 20
462.452784369
 10
-493.6409033422
 20
461.5256937242
 10
-500.8942931478
 20
460.3549988962
 10
-508.06140523
 20
458.9435013033
 10
-515.1262543683
 20
457.2941811777
 10
-522.0730676834
 20
455.4107936121
 10
-528.8863516931
 20
453.2975705362
 10
-535.5508960371
 20
450.9591611124
 10
-542.0518330817
 20
448.4008105493
 10
-548.3746639972
 20
445.6282408929
 10
-554.5052699332
 20
442.6475914217
 10
-560.4299716239
 20
439.4655974603
 10
-566.1355517392
 20
436.089292357
 10
-571.6092846875
 20
432.5262459016
 10
-576.838944066
 20
428.7843855119
 10
-581.8128697162
 20
424.8720558382
 10
-586.5199602728
 20
420.7980187631
 10
-590.9497029667
 20
416.5713341928
 10
-595.0922406797
 20
412.2014494634
 10
-598.9382899885
 20
407.6981099344
 10
-602.4793125276
 20
403.0713589883
 10
-605.7073659782
 20
398.3315082288
 10
-608.6152828817
 20
393.4891672826
 10
-611.1965514307
 20
388.5551245905
 10
-613.4454048757
 20
383.5404070116
 10
-615.3568513279
 20
378.4561606145
 10
-616.9266141539
 20
373.3137698866
 10
-618.1511766796
 20
368.1247087217
 10
-619.0278268938
 20
362.9005404211
 10
-619.5546127443
 20
357.6529176927
 10
-619.7303272371
 20
352.3935826517
  0
LWPOLYLINE
  5
95
330
1F
100
AcDbEntity
  8
0
  6
Continuous
 62
     7
370
    25
100
AcDbPolyline
 90
      126
 70
   128
 43
0.0
 10
-601.0303236132
 20
352.3935826517
 10
-600.8550114517
 20
357.3248835302
 10
-600.3295369034
 20
362.243727038
 10
-599.4551963692
 20
367.1376856065
 10
-598.2342101221
 20
371.9943912721
 10
-596.6696776037
 20
376.8015952802
 10
-594.7655327206
 20
381.5471382833
 10
-592.5265885477
 20
386.2190397478
 10
-589.9585075264
 20
390.8054979539
 10
-587.0677791123
 20
395.2949197984
 10
-583.8616974239
 20
399.6759803987
 10
-580.3483612423
 20
403.9375932909
 10
-576.5366516595
 20
408.0689998365
 10
-572.4361948256
 20
412.0597692228
 10
-568.0573470478
 20
415.8997984624
 10
-563.4111724381
 20
419.579431603
 10
-558.5094056611
 20
423.0893405176
 10
-553.3644295816
 20
426.4206441141
 10
-547.9892454629
 20
429.5649679399
 10
-542.3974208121
 20
432.5143249727
 10
-536.6030893807
 20
435.2613242364
 10
-530.620884109
 20
437.7989919878
 10
-524.4659184997
 20
440.120890925
 10
-518.1537419145
 20
442.2212393976
 10
-511.7002985959
 20
444.0946133829
 10
-505.1218866889
 20
445.7363637186
 10
-498.4351284389
 20
447.1423180795
 10
-491.6569161748
 20
448.3089597917
 10
-484.8043676053
 20
449.2332490182
 10
-477.8947941546
 20
449.9129803873
 10
-470.945652533
 20
450.3463061548
 10
-463.974494795
 20
450.5322726465
 10
-456.9989312028
 20
450.4702838159
 10
-450.0365824957
 20
450.160518477
 10
-443.1050363516
 20
449.6038110948
 10
-436.2218025659
 20
448.8015325761
 10
-429.4042661374
 20
447.7557690836
 10
-422.6696565335
 20
446.4690836168
 10
-416.0349741166
 20
444.9446948267
 10
-409.5169901435
 20
443.1865962244
 10
-403.1321629469
 20
441.199138949
 10
-396.8966193085
 20
438.9873297906
 10
-390.8261246567
 20
436.556771586
 10
-384.93599366
 20
433.9136036134
 10
-379.241120029
 20
431.0645015932
 10
-373.7558759336
 20
428.0166776872
 10
-368.4941343551
 20
424.7778208948
 10
-363.4691796784
 20
421.3561566568
 10
-358.6937002425
 20
417.7602680421
 10
-354.1797585373
 20
413.9992447591
 10
-349.9387688522
 20
410.0825937486
 10
-345.9814376717
 20
406.020239184
 10
-342.3177562241
 20
401.8224032617
 10
-338.956993032
 20
397.4996956087
 10
-335.9076268558
 20
393.0630536771
 10
-333.1773466949
 20
388.5236831403
 10
-330.7730890398
 20
383.8930280901
 10
-328.7008888607
 20
379.1828306413
 10
-326.9659913664
 20
374.4049521185
 10
-325.5727923994
 20
369.571462462
 10
-324.5248086338
 20
364.6945806242
 10
-323.8246775751
 20
359.7866447664
 10
-323.4741575603
 20
354.8599930502
 10
-323.4741575603
 20
349.9271424509
 10
-323.8246775751
 20
345.000520537
 10
-324.5248086338
 20
340.0925548769
 10
-325.5727923994
 20
335.2157028413
 10
-326.9659913664
 20
330.3822131849
 10
-328.7008888607
 20
325.604334662
 10
-330.7730890398
 20
320.894107411
 10
-333.1773466949
 20
316.263482163
 10
-335.9076268558
 20
311.7240818239
 10
-338.956993032
 20
307.2874696947
 10
-342.3177562241
 20
302.9647620416
 10
-345.9814376717
 20
298.7669261194
 10
-349.9387688522
 20
294.7045417524
 10
-354.1797585373
 20
290.7879205442
 10
-358.6937002425
 20
287.0268972612
 10
-363.4691796784
 20
283.4310086465
 10
-368.4941343551
 20
280.0093146062
 10
-373.7558759336
 20
276.7704578138
 10
-379.241120029
 20
273.7226339079
 10
-384.93599366
 20
270.8735616899
 10
-390.8261246567
 20
268.2303937173
 10
-396.8966193085
 20
265.7998355127
 10
-403.1321629469
 20
263.5880263544
 10
-409.5169901435
 20
261.600569079
 10
-416.0349741166
 20
259.8424406744
 10
-422.6696565335
 20
258.3180816866
 10
-429.4042661374
 20
257.0313962198
 10
-436.2218025659
 20
255.9856029249
 10
-443.1050363516
 20
255.1833244062
 10
-450.0365824957
 20
254.626617024
 10
-456.9989312028
 20
254.3168814874
 10
-463.974494795
 20
254.2548926569
 10
-470.945652533
 20
254.4408293462
 10
-477.8947941546
 20
254.8741849161
 10
-484.8043676053
 20
255.5538864828
 10
-491.6569161748
 20
256.4782055116
 10
-498.4351284389
 20
257.6448174215
 10
-505.1218866889
 20
259.0507717825
 10
-511.7002985959
 20
260.6925221181
 10
-518.1537419145
 20
262.5659259058
 10
-524.4659184997
 20
264.666244576
 10
-530.620884109
 20
266.9881435133
 10
-536.6030893807
 20
269.5258112646
 10
-542.3974208121
 20
272.2728105283
 10
-547.9892454629
 20
275.2221675611
 10
-553.3644295816
 20
278.3664913869
 10
-558.5094056611
 20
281.6978247858
 10
-563.4111724381
 20
285.2077337003
 10
-568.0573470478
 20
288.8873370386
 10
-572.4361948256
 20
292.7273960806
 10
-576.5366516595
 20
296.7181654668
 10
-580.3483612423
 20
300.8495720125
 10
-583.8616974239
 20
305.1111849046
 10
-587.0677791123
 20
309.4922157026
 10
-589.9585075264
 20
313.9816375471
 10
-592.5265885477
 20
318.5680957532
 10
-594.7655327206
 20
323.2399972177
 10
-596.6696776037
 20
327.9855402208
 10
-598.2342101221
 20
332.7927442289
 10
-599.4551963692
 20
337.6494796968
 10
-600.3295369034
 20
342.5434382654
 10
-600.8550114517
 20
347.4622817731
 10
-601.0303236132
 20
352.3935826517
  0
LINE
  5
96
330
1F
100
AcDbEntity
  8
0
  6
Continuous
 62
     7
370
    25
100
AcDbLine
 10
-619.7303272371
 20
-77.6064245009
 30
0.0
 11
-304.7303296213
 21
-77.6064245009
 31
0.0
  0
LWPOLYLINE
  5
97
330
1F
100
AcDbEntity
  8
0
  6
Continuous
 62
     1
370
    25
100
AcDbPolyline
 90
       35
 70
   128
 43
0.0
 10
-462.2303284292
 20
106.1549337602
 10
-454.7924818059
 20
106.2791945434
 10
-447.3712313508
 20
106.6516788698
 10
-439.9831387733
 20
107.2715671754
 10
-432.6446856891
 20
108.1374736524
 10
-425.3722503369
 20
109.2474611497
 10
-418.1820638065
 20
110.5990560747
 10
-411.0901616101
 20
112.1892334915
 10
-404.1123762314
 20
114.014461825
 10
-397.2642756586
 20
116.0706730581
 10
-390.5611373072
 20
118.3532478309
 10
-384.0179182177
 20
120.8571197486
 10
-377.649221528
 20
123.5767008758
 10
-371.4692629461
 20
126.5059115387
 10
-365.491826046
 20
129.6382101274
 10
-359.7302473669
 20
132.9666377998
 10
-354.1973940616
 20
136.4837290741
 10
-348.9055968408
 20
140.1816608406
 10
-343.8666797762
 20
144.0521629549
 10
-339.0918708925
 20
148.0866225458
 10
-334.5918394213
 20
152.2760244108
 10
-330.3766138439
 20
156.6110106207
 10
-326.4555967932
 20
161.0819252229
 10
-322.837565053
 20
165.6787844396
 10
-319.5305503492
 20
170.3913362718
 10
-316.5419734602
 20
175.2090604997
 10
-313.8784803038
 20
180.121198485
 10
-311.5460164432
 20
185.1167829729
 10
-309.5497823839
 20
190.1846976972
 10
-307.8942484741
 20
195.3136177755
 10
-306.5830953007
 20
200.4920991159
 10
-305.6192434912
 20
205.7085784174
 10
-305.0048686151
 20
210.9514327741
 10
-304.7413117771
 20
216.2089498735
 10
-304.7303296213
 20
217.5242455698
  0
LWPOLYLINE
  5
98
330
1F
100
AcDbEntity
  8
0
  6
Continuous
 62
     1
370
    25
100
AcDbPolyline
 90
       35
 70
   128
 43
0.0
 10
-619.7303272371
 20
217.5242455698
 10
-619.7193450813
 20
216.2089498735
 10
-619.4557882433
 20
210.9514327741
 10
-618.8414133673
 20
205.7085784174
 10
-617.8775615578
 20
200.4920991159
 10
-616.5664083843
 20
195.3136177755
 10
-614.9108744745
 20
190.1846976972
 10
-612.9146404152
 20
185.1167829729
 10
-610.5821765547
 20
180.121198485
 10
-607.9186833982
 20
175.2090604997
 10
-604.9301065092
 20
170.3913362718
 10
-601.6230918054
 20
165.6787844396
 10
-598.0050600653
 20
161.0819252229
 10
-594.0840430145
 20
156.6110106207
 10
-589.8688174372
 20
152.2760244108
 10
-585.3687859659
 20
148.0866225458
 10
-580.5939770822
 20
144.0521629549
 10
-575.5550600176
 20
140.1816608406
 10
-570.2632627969
 20
136.4837290741
 10
-564.7304094915
 20
132.9666377998
 10
-558.9688308124
 20
129.6382101274
 10
-552.9913939123
 20
126.5059115387
 10
-546.8114353304
 20
123.5767008758
 10
-540.4427386408
 20
120.8571197486
 10
-533.8995195513
 20
118.3532478309
 10
-527.1963811998
 20
116.0706730581
 10
-520.348280627
 20
114.014461825
 10
-513.3704952483
 20
112.1892334915
 10
-506.2785930519
 20
110.5990560747
 10
-499.0884065215
 20
109.2474611497
 10
-491.8159711693
 20
108.1374736524
 10
-484.4775180851
 20
107.2715671754
 10
-477.0894255077
 20
106.6516788698
 10
-469.6681750526
 20
106.2791945434
 10
-462.2303284292
 20
106.1549337602
  0
LWPOLYLINE
  5
99
330
1F
100
AcDbEntity
  8
0
  6
Continuous
 62
     1
370
    25
100
AcDbPolyline
 90
       34
 70
   128
 43
0.0
 10
-563.0795917993
 20
284.9589141107
 10
-558.5094056611
 20
288.2200034357
 10
-553.3644295816
 20
291.5513368345
 10
-547.9892454629
 20
294.6956606603
 10
-542.3974208121
 20
297.6450474954
 10
-536.6030893807
 20
300.3920169569
 10
-530.620884109
 20
302.9296847082
 10
-524.4659184997
 20
305.2515836454
 10
-518.1537419145
 20
307.3519023157
 10
-511.7002985959
 20
309.2253061033
 10
-505.1218866889
 20
310.867056439
 10
-498.4351284389
 20
312.2730107999
 10
-491.6569161748
 20
313.4396227098
 10
-484.8043676053
 20
314.3639417387
 10
-477.8947941546
 20
315.0436433054
 10
-470.945652533
 20
315.4769988752
 10
-463.974494795
 20
315.6629355646
 10
-456.9989312028
 20
315.600946734
 10
-450.0365824957
 20
315.2912111974
 10
-443.1050363516
 20
314.7345038152
 10
-436.2218025659
 20
313.9322252966
 10
-429.4042661374
 20
312.8864320016
 10
-422.6696565335
 20
311.5997465349
 10
-416.0349741166
 20
310.0754173494
 10
-409.5169901435
 20
308.3172889448
 10
-403.1321629469
 20
306.3298018671
 10
-396.8966193085
 20
304.1179927087
 10
-390.8261246567
 20
301.6874345041
 10
-384.93599366
 20
299.0442665315
 10
-379.241120029
 20
296.1951943136
 10
-373.7558759336
 20
293.1473704076
 10
-368.4941343551
 20
289.9085434175
 10
-363.4691796784
 20
286.4868493772
 10
-361.3810650592
 20
284.9589141107
  0
LINE
  5
9A
330
1F
100
AcDbEntity
  8
0
  6
Continuous
 62
     1
370
    25
100
AcDbLine
 10
-462.2303284292
 20
106.1549337602
 30
0.0
 11
-304.7303296213
 21
106.1549337602
 31
0.0
  0
LINE
  5
9B
330
1F
100
AcDbEntity
  8
0
  6
Continuous
 62
     1
370
    25
100
AcDbLine
 10
-619.7303272371
 20
106.1549337602
 30
0.0
 11
-462.2303284292
 21
106.1549337602
 31
0.0
  0
LINE
  5
9C
330
1F
100
AcDbEntity
  8
0
  6
Continuous
 62
     7
370
    25
100
AcDbLine
 10
309.0388436037
 20
912.5236306622
 30
0.0
 11
174.1695325988
 21
912.5236306622
 31
0.0
  0
LINE
  5
9D
330
1F
100
AcDbEntity
  8
0
  6
Continuous
 62
     7
370
    25
100
AcDbLine
 10
174.1695325988
 20
597.5236330464
 30
0.0
 11
309.0388436037
 21
597.5236330464
 31
0.0
  0
LINE
  5
9E
330
1F
100
AcDbEntity
  8
0
  6
Continuous
 62
     7
370
    25
100
AcDbLine
 10
174.1695325988
 20
912.5236306622
 30
0.0
 11
128.0388493257
 21
912.5236306622
 31
0.0
  0
LINE
  5
9F
330
1F
100
AcDbEntity
  8
0
  6
Continuous
 62
     7
370
    25
100
AcDbLine
 10
128.0388493257
 20
597.5236330464
 30
0.0
 11
174.1695325988
 21
597.5236330464
 31
0.0
  0
CIRCLE
  5
A0
330
1F
100
AcDbEntity
  8
0
  6
Continuous
 62
     7
370
    25
100
AcDbCircle
 10
128.0388493257
 20
755.0236318543
 30
0.0
 40
138.8
  0
CIRCLE
  5
A1
330
1F
100
AcDbEntity
  8
0
  6
Continuous
 62
     7
370
    25
100
AcDbCircle
 10
128.0388493257
 20
755.0236318543
 30
0.0
 40
157.4999999999999
  0
LWPOLYLINE
  5
A2
330
1F
100
AcDbEntity
  8
0
  6
Continuous
 62
     7
370
    25
100
AcDbPolyline
 90
       68
 70
   128
 43
0.0
 10
309.0388436037
 20
912.5236306622
 10
314.2982084471
 20
912.3479161694
 10
319.5458162742
 20
911.8211303189
 10
324.7699845749
 20
910.9444801047
 10
329.9590606409
 20
909.7199175789
 10
335.1014513689
 20
908.150154753
 10
340.1856828647
 20
906.2387083008
 10
345.2004004436
 20
903.9898548558
 10
350.1344431358
 20
901.4085863068
 10
354.976784082
 20
898.5006694033
 10
359.7166199404
 20
895.2726159527
 10
364.3433708864
 20
891.7315934136
 10
368.8467253166
 20
887.8855441048
 10
373.216610046
 20
883.7430063917
 10
377.4432946163
 20
879.3132636978
 10
381.5173465925
 20
874.6061731412
 10
385.4296762663
 20
869.6322474911
 10
389.171536656
 20
864.4025881126
 10
392.7345831114
 20
858.9288551643
 10
396.1108882147
 20
853.223275049
 10
399.292882176
 20
847.2985733583
 10
402.273501845
 20
841.1679674222
 10
405.0460715013
 20
834.8451365068
 10
407.6044220644
 20
828.3441994622
 10
409.9428314882
 20
821.6796551182
 10
412.0560843664
 20
814.8663711085
 10
413.9394421297
 20
807.9195577934
 10
415.5887622553
 20
800.8547086551
 10
417.0002896505
 20
793.6875965729
 10
418.1709248739
 20
786.4342067673
 10
419.0980751234
 20
779.1107312127
 10
419.7795946318
 20
771.7335053071
 10
420.2140528875
 20
764.3189948335
 10
420.4004068094
 20
756.8837421763
 10
420.3382689672
 20
749.4443386144
 10
420.0277883726
 20
742.0173852055
 10
419.4696504789
 20
734.6194532051
 10
418.6650771814
 20
727.2670507713
 10
417.6159162241
 20
719.9765850141
 10
416.3244623857
 20
712.7643224134
 10
414.7936064916
 20
705.6463580861
 10
413.0267758089
 20
698.6385692193
 10
411.027904244
 20
691.7566020324
 10
408.8014621454
 20
685.0158084466
 10
406.3523966986
 20
678.4312237336
 10
403.6861915308
 20
672.0175553396
 10
400.8088071066
 20
665.7891009285
 10
397.7266211229
 20
659.759763284
 10
394.4465775209
 20
653.9429981544
 10
390.9759182649
 20
648.3517844512
 10
387.3224515634
 20
642.9985944464
 10
383.4942836481
 20
637.8953788712
 10
379.4999677854
 20
633.0535222127
 10
375.3484595733
 20
628.4838203623
 10
371.0489679294
 20
624.1964880659
 10
366.6111041027
 20
620.2010844185
 10
362.0447922664
 20
616.5065203144
 10
357.3601801115
 20
613.1210360958
 10
352.5677580553
 20
610.0522015526
 10
347.6782102304
 20
607.3068414166
 10
342.7024293857
 20
604.8911098673
 10
337.6515466886
 20
602.8103713229
 10
332.5368125158
 20
601.0692749455
 10
327.3696411568
 20
599.6717248394
 10
322.1615661102
 20
598.6208204462
 10
316.9242102819
 20
597.9189161494
 10
311.6692561823
 20
597.5675616696
 10
309.0388436037
 20
597.5236330464
  0
LWPOLYLINE
  5
A3
330
1F
100
AcDbEntity
  8
0
  6
Continuous
 62
     7
370
    25
100
AcDbPolyline
 90
       30
 70
   128
 43
0.0
 10
234.0661917048
 20
844.5984158947
 10
231.8674508649
 20
840.782548888
 10
228.9180714804
 20
835.1907242372
 10
226.1710871178
 20
829.3963928058
 10
223.633426817
 20
823.4141875341
 10
221.3115129786
 20
817.2592219248
 10
219.2112017589
 20
810.9470453396
 10
217.3378054219
 20
804.493602021
 10
215.6960550862
 20
797.915190114
 10
214.2900932747
 20
791.228431864
 10
213.1234813648
 20
784.4502195998
 10
212.1991548854
 20
777.5976710304
 10
211.5194533187
 20
770.6880975797
 10
211.0860977488
 20
763.7389559581
 10
210.9001759606
 20
756.7677982201
 10
210.9621647912
 20
749.7922346278
 10
211.2719003278
 20
742.8298859208
 10
211.82860771
 20
735.8983397766
 10
212.6308713275
 20
729.015105991
 10
213.676672073
 20
722.1975695624
 10
214.9633649903
 20
715.4629599585
 10
216.4877016264
 20
708.8282775416
 10
218.245830031
 20
702.3102935686
 10
220.2333096581
 20
695.925466372
 10
222.445126267
 20
689.6899227335
 10
224.8756770211
 20
683.6194280817
 10
227.5188375431
 20
677.729297085
 10
230.3679172116
 20
672.034423454
 10
233.415733667
 20
666.5491793587
 10
234.0661917048
 20
665.4488478138
  0
LWPOLYLINE
  5
A4
330
1F
100
AcDbEntity
  8
0
  6
Continuous
 62
     1
370
    25
100
AcDbPolyline
 90
       35
 70
   128
 43
0.0
 10
285.5388481336
 20
755.0236318543
 10
285.4146022516
 20
747.5857852309
 10
285.0421030241
 20
740.1645347758
 10
284.4222296196
 20
732.7764421984
 10
283.5563231426
 20
725.4379891141
 10
282.4463356453
 20
718.1655537619
 10
281.0947407204
 20
710.9753672316
 10
279.5045484024
 20
703.8834650352
 10
277.6793200689
 20
696.9056796565
 10
275.6231237369
 20
690.0575790837
 10
273.3405340629
 20
683.3544407322
 10
270.8366621452
 20
676.8112216427
 10
268.117081018
 20
670.4425249531
 10
265.1878852564
 20
664.2625663712
 10
262.0555717665
 20
658.285129471
 10
258.7271589952
 20
652.523550792
 10
255.210067721
 20
646.9906974866
 10
251.5121285039
 20
641.6989002659
 10
247.641618939
 20
636.6599832012
 10
243.6071667987
 20
631.8851743176
 10
239.4177649337
 20
627.3851428463
 10
235.0827712732
 20
623.169917269
 10
230.6118641215
 20
619.2489002182
 10
226.0150049048
 20
615.630868478
 10
221.3024530726
 20
612.3238537743
 10
216.4847362953
 20
609.3352768853
 10
211.5725983101
 20
606.6717837288
 10
206.576998921
 20
604.3393198683
 10
201.5090841966
 20
602.343085809
 10
196.3801641184
 20
600.6875518992
 10
191.201682778
 20
599.3763987257
 10
185.9851960259
 20
598.4125469162
 10
180.7423453945
 20
597.7981720402
 10
175.4848282951
 20
597.5346152022
 10
174.1695325988
 20
597.5236330464
  0
LWPOLYLINE
  5
A5
330
1F
100
AcDbEntity
  8
0
  6
Continuous
 62
     1
370
    25
100
AcDbPolyline
 90
       35
 70
   128
 43
0.0
 10
174.1695325988
 20
912.5236306622
 10
175.4848282951
 20
912.5126485064
 10
180.7423453945
 20
912.2490916684
 10
185.9851960259
 20
911.6347167923
 10
191.201682778
 20
910.6708649828
 10
196.3801641184
 20
909.3597118094
 10
201.5090841966
 20
907.7041778996
 10
206.576998921
 20
905.7079438402
 10
211.5725983101
 20
903.3754799797
 10
216.4847362953
 20
900.7119868233
 10
221.3024530726
 20
897.7234099343
 10
226.0150049048
 20
894.4163952305
 10
230.6118641215
 20
890.7983634903
 10
235.0827712732
 20
886.8773464396
 10
239.4177649337
 20
882.6621208622
 10
243.6071667987
 20
878.162089391
 10
247.641618939
 20
873.3872805073
 10
251.5121285039
 20
868.3483634426
 10
255.210067721
 20
863.0565662219
 10
258.7271589952
 20
857.5237129166
 10
262.0555717665
 20
851.7621342375
 10
265.1878852564
 20
845.7846973374
 10
268.117081018
 20
839.6047387554
 10
270.8366621452
 20
833.2360420658
 10
273.3405340629
 20
826.6928229763
 10
275.6231237369
 20
819.9896846249
 10
277.6793200689
 20
813.1415840521
 10
279.5045484024
 20
806.1637986734
 10
281.0947407204
 20
799.071896477
 10
282.4463356453
 20
791.8817099466
 10
283.5563231426
 20
784.6092745944
 10
284.4222296196
 20
777.2708215102
 10
285.0421030241
 20
769.8827289327
 10
285.4146022516
 20
762.4614784776
 10
285.5388481336
 20
755.0236318543
  0
LWPOLYLINE
  5
A6
330
1F
100
AcDbEntity
  8
0
  6
Continuous
 62
     1
370
    25
100
AcDbPolyline
 90
       57
 70
   128
 43
0.0
 10
155.0615780222
 20
891.1677185728
 10
154.5687109398
 20
891.0275135472
 10
149.7615087944
 20
889.4629810288
 10
145.0159639287
 20
887.5588361456
 10
140.3440615329
 20
885.3198919728
 10
135.7576065863
 20
882.7518109515
 10
131.268183112
 20
879.8610825374
 10
126.8871322906
 20
876.655000849
 10
122.6255210283
 20
873.1416646674
 10
118.4941144827
 20
869.3299550845
 10
114.5033478903
 20
865.2294982507
 10
110.6633037495
 20
860.8506504729
 10
106.9836817848
 20
856.2044758632
 10
103.4737784582
 20
851.3027090862
 10
100.1424580979
 20
846.1577330067
 10
96.9981361347
 20
840.782548888
 10
94.0487567502
 20
835.1907242372
 10
91.3017686623
 20
829.3963928058
 10
88.7641083616
 20
823.4141875341
 10
86.4421945232
 20
817.2592219248
 10
84.3418870288
 20
810.9470453396
 10
82.4684906917
 20
804.493602021
 10
80.8267366308
 20
797.915190114
 10
79.4207785445
 20
791.228431864
 10
78.2541629093
 20
784.4502195998
 10
77.3298364299
 20
777.5976710304
 10
76.6501385885
 20
770.6880975797
 10
76.2167792934
 20
763.7389559581
 10
76.0308575052
 20
756.7677982201
 10
76.0928463357
 20
749.7922346278
 10
76.4025818723
 20
742.8298859208
 10
76.9592855292
 20
735.8983397766
 10
77.761552872
 20
729.015105991
 10
78.8073536175
 20
722.1975695624
 10
80.0940465349
 20
715.4629599585
 10
81.6183831709
 20
708.8282775416
 10
83.3765153008
 20
702.3102935686
 10
85.363994928
 20
695.925466372
 10
87.5758040863
 20
689.6899227335
 10
90.0063585656
 20
683.6194280817
 10
92.6495153623
 20
677.729297085
 10
95.4985987562
 20
672.034423454
 10
98.5464133489
 20
666.5491793587
 10
101.7852589655
 20
661.2874377801
 10
105.2069511431
 20
656.2624831035
 10
108.8028509336
 20
651.4870036676
 10
112.5638704913
 20
646.9730619623
 10
116.4805121886
 20
642.7320722773
 10
120.5428816545
 20
638.7747410967
 10
124.7407164125
 20
635.1110596492
 10
129.0634126569
 20
631.750296457
 10
133.5000508631
 20
628.7009302809
 10
138.0394237282
 20
625.97065012
 10
142.6700648087
 20
623.5663924649
 10
147.3802752959
 20
621.4941922858
 10
152.1581594067
 20
619.7592947914
 10
155.0615780222
 20
618.8795451357
  0
INSERT
  5
B2
330
1F
100
AcDbEntity
  8
FORMAT
 62
     7
100
AcDbBlockReference
  2
SW_CENTERMARKSYMBOL_0
 10
128.0388493257
 20
755.0236318543
 30
0.0
  0
LINE
  5
B3
330
1F
100
AcDbEntity
  8
0
  6
Continuous
 62
     7
370
    25
100
AcDbLine
 10
618.0255081607
 20
106.1549337602
 30
0.0
 11
618.0255081607
 21
-77.6064245009
 31
0.0
  0
LINE
  5
B4
330
1F
100
AcDbEntity
  8
0
  6
Continuous
 62
     7
370
    25
100
AcDbLine
 10
933.0255057766
 20
-77.6064245009
 30
0.0
 11
933.0255057766
 21
106.1549337602
 31
0.0
  0
LINE
  5
B5
330
1F
100
AcDbEntity
  8
0
  6
Continuous
 62
     7
370
    25
100
AcDbLine
 10
933.0255057766
 20
106.1549337602
 30
0.0
 11
933.0255057766
 21
217.5242455698
 31
0.0
  0
LINE
  5
B6
330
1F
100
AcDbEntity
  8
0
  6
Continuous
 62
     7
370
    25
100
AcDbLine
 10
618.0255081607
 20
217.5242455698
 30
0.0
 11
618.0255081607
 21
106.1549337602
 31
0.0
  0
LINE
  5
B7
330
1F
100
AcDbEntity
  8
0
  6
Continuous
 62
     7
370
    25
100
AcDbLine
 10
618.0255081607
 20
352.3935826517
 30
0.0
 11
618.0255081607
 21
217.5242455698
 31
0.0
  0
LINE
  5
B8
330
1F
100
AcDbEntity
  8
0
  6
Continuous
 62
     7
370
    25
100
AcDbLine
 10
933.0255057766
 20
217.5242455698
 30
0.0
 11
933.0255057766
 21
352.3935826517
 31
0.0
  0
LINE
  5
B9
330
1F
100
AcDbEntity
  8
0
  6
Continuous
 62
     7
370
    25
100
AcDbLine
 10
618.0255081607
 20
-77.6064245009
 30
0.0
 11
933.0255057766
 21
-77.6064245009
 31
0.0
  0
LWPOLYLINE
  5
BA
330
1F
100
AcDbEntity
  8
0
  6
Continuous
 62
     7
370
    25
100
AcDbPolyline
 90
       69
 70
   128
 43
0.0
 10
618.0255081607
 20
352.3935826517
 10
618.0694367839
 20
355.0239952303
 10
618.4207912637
 20
360.2789493299
 10
619.1226955606
 20
365.516290257
 10
620.1735999538
 20
370.7243653036
 10
621.5711500599
 20
375.8915217615
 10
623.3122464372
 20
381.0062559343
 10
625.3929849817
 20
386.0571535326
 10
627.808716531
 20
391.0329194761
 10
630.554076667
 20
395.9224971033
 10
633.6229112102
 20
400.7149191595
 10
637.0083954288
 20
405.3995164133
 10
640.7029595329
 20
409.9658282495
 10
644.6983631803
 20
414.4036920763
 10
648.9856954767
 20
418.7031837202
 10
653.5553973271
 20
422.8547366357
 10
658.3972539856
 20
426.8490226961
 10
663.5004695608
 20
430.6771906114
 10
668.8536595656
 20
434.3306573129
 10
674.4448732688
 20
437.8013165689
 10
680.2616383983
 20
441.0813601709
 10
686.2909760429
 20
444.1635163522
 10
692.5194304539
 20
447.0409305788
 10
698.933098848
 20
449.7071059442
 10
705.517683561
 20
452.1562011934
 10
712.2584771468
 20
454.3826134897
 10
719.1404443337
 20
456.3815148569
 10
726.1482332005
 20
458.1483157373
 10
733.2661975278
 20
459.6792014337
 10
740.4784601285
 20
460.9706552721
 10
747.7689258857
 20
462.0198162294
 10
755.1213283195
 20
462.8243597246
 10
762.5192603199
 20
463.3824976183
 10
769.9462137288
 20
463.6929782129
 10
777.3856172907
 20
463.7551458574
 10
784.8208699478
 20
463.5687621332
 10
792.2353804214
 20
463.1343038774
 10
799.6126063271
 20
462.452784369
 10
806.9360818817
 20
461.5256937242
 10
814.1894716872
 20
460.3549988962
 10
821.3565837695
 20
458.9435013033
 10
828.4214329077
 20
457.2941811777
 10
835.3682462229
 20
455.4107936121
 10
842.1815302326
 20
453.2975705362
 10
848.8460745765
 20
450.9591611124
 10
855.3470116212
 20
448.4008105493
 10
861.6698425366
 20
445.6282408929
 10
867.8004484727
 20
442.6475914217
 10
873.7251501633
 20
439.4655974603
 10
879.4307302786
 20
436.089292357
 10
884.904463227
 20
432.5262459016
 10
890.1341226055
 20
428.7843855119
 10
895.1080482556
 20
424.8720558382
 10
899.8151388122
 20
420.7980187631
 10
904.2448815061
 20
416.5713341928
 10
908.3874192192
 20
412.2014494634
 10
912.2334685279
 20
407.6981099344
 10
915.7744910671
 20
403.0713589883
 10
919.0025445177
 20
398.3315082288
 10
921.9104614212
 20
393.4891672826
 10
924.4917299701
 20
388.5551245905
 10
926.7405834152
 20
383.5404070116
 10
928.6520298673
 20
378.4561606145
 10
930.2217926933
 20
373.3137698866
 10
931.446355219
 20
368.1247087217
 10
932.3230054332
 20
362.9005404211
 10
932.8497912838
 20
357.6529176927
 10
933.0255057766
 20
352.3935826517
 10
933.0255057766
 20
352.3935826517
  0
LINE
  5
BB
330
1F
100
AcDbEntity
  8
0
  6
Continuous
 62
     1
370
    25
100
AcDbLine
 10
618.0255081607
 20
106.1549337602
 30
0.0
 11
933.0255057766
 21
106.1549337602
 31
0.0
  0
LWPOLYLINE
  5
BC
330
1F
100
AcDbEntity
  8
0
  6
Continuous
 62
     1
370
    25
100
AcDbPolyline
 90
       68
 70
   128
 43
0.0
 10
618.0255081607
 20
217.5242455698
 10
618.1243624641
 20
221.4694174028
 10
618.563454981
 20
226.7210634447
 10
619.3527843906
 20
231.9522054887
 10
620.490607257
 20
237.1511312223
 10
621.9743605806
 20
242.306247542
 10
623.8007512046
 20
247.4061103559
 10
625.9657111122
 20
252.4392755724
 10
628.4643825246
 20
257.3945077158
 10
631.2912073089
 20
262.2608097292
 10
634.4398822738
 20
267.0272739626
 10
637.9033591701
 20
271.6832609869
 10
641.6739489986
 20
276.2184293962
 10
645.7431878997
 20
280.6225867963
 10
650.1020457698
 20
284.8859878278
 10
654.7407548977
 20
288.9990659452
 10
659.6489887787
 20
292.9526420332
 10
664.8157876088
 20
296.7379244066
 10
670.2296253397
 20
300.3464492059
 10
675.8784171297
 20
303.7701400018
 10
681.749564047
 20
307.0013972021
 10
687.8299605204
 20
310.0330086446
 10
694.1060390426
 20
312.8582092023
 10
700.5637925221
 20
315.4706509805
 10
707.1888189866
 20
317.8645523286
 10
713.9663290335
 20
320.0345488287
 10
720.8812017097
 20
321.9758125043
 10
727.9180105878
 20
323.6839922166
 10
735.0610461189
 20
325.1553030706
 10
742.2943789615
 20
326.3864370084
 10
749.6018581195
 20
327.3746522165
 10
756.967185448
 20
328.1177433229
 10
764.3739240347
 20
328.6140712
 10
771.8055459308
 20
328.8625033594
 10
779.2454680065
 20
328.8625033594
 10
786.6770899026
 20
328.6140712
 10
794.0838284893
 20
328.1177433229
 10
801.4491558178
 20
327.3746522165
 10
808.7566349758
 20
326.3864370084
 10
815.9899678184
 20
325.1553030706
 10
823.1330033495
 20
323.6839922166
 10
830.1698122276
 20
321.9758125043
 10
837.0846849038
 20
320.0345488287
 10
843.8621949507
 20
317.8645523286
 10
850.4872214152
 20
315.4706509805
 10
856.9449748947
 20
312.8582092023
 10
863.2210534169
 20
310.0330086446
 10
869.3014498903
 20
307.0013972021
 10
875.1725968076
 20
303.7701400018
 10
880.8213885976
 20
300.3464492059
 10
886.2352263285
 20
296.7379244066
 10
891.4020251586
 20
292.9526420332
 10
896.3102590396
 20
288.9990659452
 10
900.9489681675
 20
284.8859878278
 10
905.3078260376
 20
280.6225867963
 10
909.3770649387
 20
276.2184293962
 10
913.1476547672
 20
271.6832609869
 10
916.6111316635
 20
267.0272739626
 10
919.7598066284
 20
262.2608097292
 10
922.5866314127
 20
257.3945077158
 10
925.0853028251
 20
252.4392755724
 10
927.2502627327
 20
247.4061103559
 10
929.0766533567
 20
242.306247542
 10
930.5604066803
 20
237.1511312223
 10
931.6982295467
 20
231.9522054887
 10
932.4875589563
 20
226.7210634447
 10
932.9266514732
 20
221.4694174028
 10
933.0255057766
 20
217.5242455698
  0
LINE
  5
BD
330
1F
100
AcDbEntity
  8
0
  6
Continuous
 62
     7
370
    25
100
AcDbLine
 10
309.0388436037
 20
-327.8217958571
 30
0.0
 11
174.1695325988
 21
-327.8217958571
 31
0.0
  0
LINE
  5
BE
330
1F
100
AcDbEntity
  8
0
  6
Continuous
 62
     7
370
    25
100
AcDbLine
 10
174.1695325988
 20
-642.8217934729
 30
0.0
 11
309.0388436037
 21
-642.8217934729
 31
0.0
  0
LINE
  5
BF
330
1F
100
AcDbEntity
  8
0
  6
Continuous
 62
     7
370
    25
100
AcDbLine
 10
128.0388493257
 20
-642.8217934729
 30
0.0
 11
174.1695325988
 21
-642.8217934729
 31
0.0
  0
LINE
  5
C0
330
1F
100
AcDbEntity
  8
0
  6
Continuous
 62
     7
370
    25
100
AcDbLine
 10
174.1695325988
 20
-327.8217958571
 30
0.0
 11
128.0388493257
 21
-327.8217958571
 31
0.0
  0
LWPOLYLINE
  5
C1
330
1F
100
AcDbEntity
  8
0
  6
Continuous
 62
     7
370
    25
100
AcDbPolyline
 90
      134
 70
   128
 43
0.0
 10
309.0388436037
 20
-642.8217934729
 10
314.2982084471
 20
-642.6460789801
 10
319.5458162742
 20
-642.1192931296
 10
324.7699845749
 20
-641.2426429154
 10
329.9590606409
 20
-640.0180803897
 10
335.1014513689
 20
-638.4483175637
 10
340.1856828647
 20
-636.5368711116
 10
345.2004004436
 20
-634.2880176665
 10
350.1344431358
 20
-631.7067491175
 10
354.976784082
 20
-628.798832214
 10
359.7166199404
 20
-625.5707787635
 10
364.3433708864
 20
-622.0297562243
 10
368.8467253166
 20
-618.1837069155
 10
373.216610046
 20
-614.0411692025
 10
377.4432946163
 20
-609.6114265086
 10
381.5173465925
 20
-604.904335952
 10
385.4296762663
 20
-599.9304103018
 10
389.171536656
 20
-594.7007509233
 10
392.7345831114
 20
-589.227017975
 10
396.1108882147
 20
-583.5214378597
 10
399.292882176
 20
-577.596736169
 10
402.273501845
 20
-571.466130233
 10
405.0460715013
 20
-565.1432993175
 10
407.6044220644
 20
-558.6423622729
 10
409.9428314882
 20
-551.977817929
 10
412.0560843664
 20
-545.1645339193
 10
413.9394421297
 20
-538.2177206041
 10
415.5887622553
 20
-531.1528714658
 10
417.0002896505
 20
-523.9857593836
 10
418.1709248739
 20
-516.732369578
 10
419.0980751234
 20
-509.4088940235
 10
419.7795946318
 20
-502.0316681178
 10
420.2140528875
 20
-494.6171576442
 10
420.4004068094
 20
-487.181904987
 10
420.3382689672
 20
-479.7425014252
 10
420.0277883726
 20
-472.3155480163
 10
419.4696504789
 20
-464.9176160158
 10
418.6650771814
 20
-457.5652135821
 10
417.6159162241
 20
-450.2747478248
 10
416.3244623857
 20
-443.0624852242
 10
414.7936064916
 20
-435.9445208968
 10
413.0267758089
 20
-428.9367320301
 10
411.027904244
 20
-422.0547648431
 10
408.8014621454
 20
-415.3139712574
 10
406.3523966986
 20
-408.7293865444
 10
403.6861915308
 20
-402.3157181503
 10
400.8088071066
 20
-396.0872637393
 10
397.7266211229
 20
-390.0579260947
 10
394.4465775209
 20
-384.2411609651
 10
390.9759182649
 20
-378.649947262
 10
387.3224515634
 20
-373.2967572571
 10
383.4942836481
 20
-368.1935416819
 10
379.4999677854
 20
-363.3516850235
 10
375.3484595733
 20
-358.7819831731
 10
371.0489679294
 20
-354.4946508767
 10
366.6111041027
 20
-350.4992472293
 10
362.0447922664
 20
-346.8046831252
 10
357.3601801115
 20
-343.4191989066
 10
352.5677580553
 20
-340.3503643634
 10
347.6782102304
 20
-337.6050042273
 10
342.7024293857
 20
-335.1892726781
 10
337.6515466886
 20
-333.1085341336
 10
332.5368125158
 20
-331.3674377562
 10
327.3696411568
 20
-329.9698876502
 10
322.1615661102
 20
-328.918983257
 10
316.9242102819
 20
-328.2170789601
 10
311.6692561823
 20
-327.8657244803
 10
306.4084459263
 20
-327.8657244803
 10
301.1534918266
 20
-328.2170789601
 10
295.9161359983
 20
-328.918983257
 10
290.7080609518
 20
-329.9698876502
 10
285.5408895927
 20
-331.3674377562
 10
280.4261554199
 20
-333.1085341336
 10
275.3752727228
 20
-335.1892726781
 10
270.3994918781
 20
-337.6050042273
 10
265.5099440533
 20
-340.3503643634
 10
260.7175070959
 20
-343.4191989066
 10
256.0329098421
 20
-346.8046831252
 10
251.4665905553
 20
-350.4992472293
 10
247.0287341791
 20
-354.4946508767
 10
242.7292425352
 20
-358.7819831731
 10
238.5777194219
 20
-363.3516850235
 10
234.5834184604
 20
-368.1935416819
 10
230.7552579957
 20
-373.2967572571
 10
227.101776393
 20
-378.649947262
 10
223.6311320382
 20
-384.2411609651
 10
220.3510660845
 20
-390.0579260947
 10
217.268895002
 20
-396.0872637393
 10
214.3915031272
 20
-402.3157181503
 10
211.7252979594
 20
-408.7293865444
 10
209.2762474137
 20
-415.3139712574
 10
207.0497978645
 20
-422.0547648431
 10
205.0509262997
 20
-428.9367320301
 10
203.2840956169
 20
-435.9445208968
 10
201.7532471734
 20
-443.0624852242
 10
200.461793335
 20
-450.2747478248
 10
199.4126174765
 20
-457.5652135821
 10
198.6080590802
 20
-464.9176160158
 10
198.0499137359
 20
-472.3155480163
 10
197.7394331413
 20
-479.7425014252
 10
197.6772952991
 20
-487.181904987
 10
197.8636566716
 20
-494.6171576442
 10
198.2980925756
 20
-502.0316681178
 10
198.9796344357
 20
-509.4088940235
 10
199.9067623335
 20
-516.732369578
 10
201.0774050074
 20
-523.9857593836
 10
202.4889473039
 20
-531.1528714658
 10
204.1382525283
 20
-538.2177206041
 10
206.0216251927
 20
-545.1645339193
 10
208.1348706203
 20
-551.977817929
 10
210.4732800442
 20
-558.6423622729
 10
213.031615706
 20
-565.1432993175
 10
215.804192813
 20
-571.466130233
 10
218.7848050314
 20
-577.596736169
 10
221.9668138939
 20
-583.5214378597
 10
225.3431115466
 20
-589.227017975
 10
228.9061654526
 20
-594.7007509233
 10
232.6480258423
 20
-599.9304103018
 10
236.5603480655
 20
-604.904335952
 10
240.6344000417
 20
-609.6114265086
 10
244.861084612
 20
-614.0411692025
 10
249.2309767919
 20
-618.1837069155
 10
253.734316321
 20
-622.0297562243
 10
258.3610821682
 20
-625.5707787635
 10
263.1009031254
 20
-628.798832214
 10
267.9432440716
 20
-631.7067491175
 10
272.8772867637
 20
-634.2880176665
 10
277.8920192438
 20
-636.5368711116
 10
282.9762507397
 20
-638.4483175637
 10
288.1186414676
 20
-640.0180803897
 10
293.3077026325
 20
-641.2426429154
 10
298.5318858343
 20
-642.1192931296
 10
303.7794936615
 20
-642.6460789801
 10
309.0388436037
 20
-642.8217934729
  0
LWPOLYLINE
  5
C2
330
1F
100
AcDbEntity
  8
0
  6
Continuous
 62
     7
370
    25
100
AcDbPolyline
 90
      126
 70
   128
 43
0.0
 10
309.0388436037
 20
-624.121789849
 10
304.1075427252
 20
-623.9464776875
 10
299.1886992174
 20
-623.4210031392
 10
294.2947406488
 20
-622.546662605
 10
289.4380349832
 20
-621.3256763579
 10
284.6308309751
 20
-619.7611438395
 10
279.8852879721
 20
-617.8569989564
 10
275.2133865076
 20
-615.6180547835
 10
270.6269283014
 20
-613.0499737622
 10
266.1375064569
 20
-610.1592453481
 10
261.7564458566
 20
-606.9531636597
 10
257.4948329645
 20
-603.4398274781
 10
253.3634264189
 20
-599.6281178953
 10
249.3726644831
 20
-595.5276610614
 10
245.5326203423
 20
-591.1488132836
 10
241.8530021029
 20
-586.5026386739
 10
238.3430931884
 20
-581.6008718969
 10
235.0117746907
 20
-576.4558958174
 10
231.8674508649
 20
-571.0807116987
 10
228.9180714804
 20
-565.4888870479
 10
226.1710871178
 20
-559.6945556165
 10
223.633426817
 20
-553.7123503448
 10
221.3115129786
 20
-547.5573847355
 10
219.2112017589
 20
-541.2452081503
 10
217.3378054219
 20
-534.7917648317
 10
215.6960550862
 20
-528.2133529247
 10
214.2900932747
 20
-521.5265946747
 10
213.1234813648
 20
-514.7483824106
 10
212.1991548854
 20
-507.8958338411
 10
211.5194533187
 20
-500.9862603904
 10
211.0860977488
 20
-494.0371187689
 10
210.9001759606
 20
-487.0659610308
 10
210.9621647912
 20
-480.0903974386
 10
211.2719003278
 20
-473.1280487315
 10
211.82860771
 20
-466.1965025874
 10
212.6308713275
 20
-459.3132688017
 10
213.676672073
 20
-452.4957323732
 10
214.9633649903
 20
-445.7611227693
 10
216.4877016264
 20
-439.1264403524
 10
218.245830031
 20
-432.6084563793
 10
220.2333096581
 20
-426.2236291827
 10
222.445126267
 20
-419.9880855443
 10
224.8756770211
 20
-413.9175908925
 10
227.5188375431
 20
-408.0274598958
 10
230.3679172116
 20
-402.3325862648
 10
233.415733667
 20
-396.8473421694
 10
236.6545755583
 20
-391.5856005909
 10
240.0762695986
 20
-386.5606459142
 10
243.6721656638
 20
-381.7851664783
 10
247.4331889468
 20
-377.2712247731
 10
251.3498325067
 20
-373.030235088
 10
255.4122019726
 20
-369.0729039075
 10
259.6100378948
 20
-365.40922246
 10
263.9327306467
 20
-362.0484592678
 10
268.3693725782
 20
-358.9990930916
 10
272.908743115
 20
-356.2688129307
 10
277.5393832641
 20
-353.8645552756
 10
282.249595614
 20
-351.7923550965
 10
287.0274741369
 20
-350.0574576022
 10
291.8609637934
 20
-348.6642586352
 10
296.7378456312
 20
-347.6162748696
 10
301.6457963901
 20
-346.9161438109
 10
306.572418304
 20
-346.5656237961
 10
311.5052838045
 20
-346.5656237961
 10
316.4319057184
 20
-346.9161438109
 10
321.3398564773
 20
-347.6162748696
 10
326.2167383152
 20
-348.6642586352
 10
331.0502279716
 20
-350.0574576022
 10
335.8281064945
 20
-351.7923550965
 10
340.5383188444
 20
-353.8645552756
 10
345.1689589935
 20
-356.2688129307
 10
349.7083295303
 20
-358.9990930916
 10
354.1449714619
 20
-362.0484592678
 10
358.4676642137
 20
-365.40922246
 10
362.665500136
 20
-369.0729039075
 10
366.7278696018
 20
-373.030235088
 10
370.6445057112
 20
-377.2712247731
 10
374.4055289942
 20
-381.7851664783
 10
378.00143251
 20
-386.5606459142
 10
381.4231116491
 20
-391.5856005909
 10
384.6619684416
 20
-396.8473421694
 10
387.7097923475
 20
-402.3325862648
 10
390.5588645655
 20
-408.0274598958
 10
393.202032538
 20
-413.9175908925
 10
395.6325609403
 20
-419.9880855443
 10
397.844399901
 20
-426.2236291827
 10
399.8318571764
 20
-432.6084563793
 10
401.589985581
 20
-439.1264403524
 10
403.1143445688
 20
-445.7611227693
 10
404.4010300356
 20
-452.4957323732
 10
405.4468233305
 20
-459.3132688017
 10
406.2491018492
 20
-466.1965025874
 10
406.8058092314
 20
-473.1280487315
 10
407.1155447679
 20
-480.0903974386
 10
407.1775335985
 20
-487.0659610308
 10
406.9915969091
 20
-494.0371187689
 10
406.5582413393
 20
-500.9862603904
 10
405.8785397726
 20
-507.8958338411
 10
404.9542207437
 20
-514.7483824106
 10
403.7876088339
 20
-521.5265946747
 10
402.3816544729
 20
-528.2133529247
 10
400.7399041372
 20
-534.7917648317
 10
398.8665003496
 20
-541.2452081503
 10
396.7661816793
 20
-547.5573847355
 10
394.4442827421
 20
-553.7123503448
 10
391.9066149908
 20
-559.6945556165
 10
389.159615727
 20
-565.4888870479
 10
386.2102586943
 20
-571.0807116987
 10
383.0659348684
 20
-576.4558958174
 10
379.7346014696
 20
-581.6008718969
 10
376.224692555
 20
-586.5026386739
 10
372.5450743156
 20
-591.1488132836
 10
368.7050301748
 20
-595.5276610614
 10
364.7142607885
 20
-599.6281178953
 10
360.5828542429
 20
-603.4398274781
 10
356.3212413507
 20
-606.9531636597
 10
351.9401956516
 20
-610.1592453481
 10
347.4507738071
 20
-613.0499737622
 10
342.864315601
 20
-615.6180547835
 10
338.1924141365
 20
-617.8569989564
 10
333.4468711334
 20
-619.7611438395
 10
328.6396671253
 20
-621.3256763579
 10
323.7829465586
 20
-622.546662605
 10
318.88898799
 20
-623.4210031392
 10
313.9701444822
 20
-623.9464776875
 10
309.0388436037
 20
-624.121789849
  0
ARC
  5
C3
330
1F
100
AcDbEntity
  8
0
  6
Continuous
 62
     7
370
    25
100
AcDbCircle
 10
128.0388493257
 20
-485.321794665
 30
0.0
 40
157.5
100
AcDbArc
 50
90.0
 51
270.0
  0
ARC
  5
C4
330
1F
100
AcDbEntity
  8
0
  6
Continuous
 62
     7
370
    25
100
AcDbCircle
 10
128.0388493257
 20
-485.321794665
 30
0.0
 40
138.8
100
AcDbArc
 50
319.8079670019
 51
40.1920329981
  0
LWPOLYLINE
  5
C5
330
1F
100
AcDbEntity
  8
0
  6
Continuous
 62
     1
370
    25
100
AcDbPolyline
 90
       68
 70
   128
 43
0.0
 10
174.1695325988
 20
-327.8217958571
 10
170.2243756669
 20
-327.9206501605
 10
164.9727258998
 20
-328.3597426774
 10
159.7415987569
 20
-329.149072087
 10
154.5426655727
 20
-330.2868949534
 10
149.3875269013
 20
-331.770648277
 10
144.2876864391
 20
-333.597038901
 10
139.254524948
 20
-335.7619988085
 10
134.2992723155
 20
-338.260670221
 10
129.4329857853
 20
-341.0874950053
 10
124.6665239966
 20
-344.2361699702
 10
120.0105227696
 20
-347.6996468665
 10
115.4753711241
 20
-351.470236695
 10
111.0711895096
 20
-355.5394755961
 10
106.8078052419
 20
-359.8983334662
 10
102.6947308498
 20
-364.5370425941
 10
98.7411454486
 20
-369.4452764751
 10
94.9558686632
 20
-374.6120753051
 10
91.3473513144
 20
-380.025913036
 10
87.9236381667
 20
-385.674704826
 10
84.6923772412
 20
-391.5458517434
 10
81.6607732492
 20
-397.6262482168
 10
78.835591318
 20
-403.902326739
 10
76.2231383639
 20
-410.3600802185
 10
73.8292444664
 20
-416.9851066829
 10
71.6592442411
 20
-423.7626167299
 10
69.717988016
 20
-430.677489406
 10
68.0098008531
 20
-437.7142982842
 10
66.538501175
 20
-444.8573338153
 10
65.3073672372
 20
-452.0906666578
 10
64.3191445785
 20
-459.3981458159
 10
63.5760460215
 20
-466.7634731443
 10
63.0797181445
 20
-474.1702117311
 10
62.8312785345
 20
-481.6018336272
 10
62.8312785345
 20
-489.0417557029
 10
63.0797181445
 20
-496.473377599
 10
63.5760460215
 20
-503.8801161857
 10
64.3191445785
 20
-511.2454435141
 10
65.3073672372
 20
-518.5529226722
 10
66.538501175
 20
-525.7862555148
 10
68.0098008531
 20
-532.9292910458
 10
69.717988016
 20
-539.966099924
 10
71.6592442411
 20
-546.8809726001
 10
73.8292444664
 20
-553.6584826471
 10
76.2231383639
 20
-560.2835091116
 10
78.835591318
 20
-566.741262591
 10
81.6607732492
 20
-573.0173411133
 10
84.6923772412
 20
-579.0977375867
 10
87.9236381667
 20
-584.968884504
 10
91.3473513144
 20
-590.617676294
 10
94.9558686632
 20
-596.0315140249
 10
98.7411454486
 20
-601.1983128549
 10
102.6947308498
 20
-606.1065467359
 10
106.8078052419
 20
-610.7452558638
 10
111.0711895096
 20
-615.1041137339
 10
115.4753711241
 20
-619.1733526351
 10
120.0105227696
 20
-622.9439424636
 10
124.6665239966
 20
-626.4074193598
 10
129.4329857853
 20
-629.5560943247
 10
134.2992723155
 20
-632.382919109
 10
139.254524948
 20
-634.8815905215
 10
144.2876864391
 20
-637.046550429
 10
149.3875269013
 20
-638.8729410531
 10
154.5426655727
 20
-640.3566943766
 10
159.7415987569
 20
-641.4945172431
 10
164.9727258998
 20
-642.2838466527
 10
170.2243756669
 20
-642.7229391696
 10
174.1695325988
 20
-642.8217934729
  0
LWPOLYLINE
  5
C6
330
1F
100
AcDbEntity
  8
0
  6
Continuous
 62
     1
370
    25
100
AcDbPolyline
 90
       34
 70
   128
 43
0.0
 10
241.6041899639
 20
-384.472531295
 10
243.1321103292
 20
-386.5606459142
 10
246.5538043695
 20
-391.5856005909
 10
249.7926462608
 20
-396.8473421694
 10
252.8404627162
 20
-402.3325862648
 10
255.6895423847
 20
-408.0274598958
 10
258.3327103573
 20
-413.9175908925
 10
260.7632536608
 20
-419.9880855443
 10
262.9750628191
 20
-426.2236291827
 10
264.9625498968
 20
-432.6084563793
 10
266.7206783014
 20
-439.1264403524
 10
268.2450074869
 20
-445.7611227693
 10
269.5317078548
 20
-452.4957323732
 10
270.5775160509
 20
-459.3132688017
 10
271.3797796684
 20
-466.1965025874
 10
271.9364870506
 20
-473.1280487315
 10
272.2462225872
 20
-480.0903974386
 10
272.3081965166
 20
-487.0659610308
 10
272.1222896295
 20
-494.0371187689
 10
271.6889191585
 20
-500.9862603904
 10
271.009232493
 20
-507.8958338411
 10
270.084898563
 20
-514.7483824106
 10
268.9182866531
 20
-521.5265946747
 10
267.512317391
 20
-528.2133529247
 10
265.8705670553
 20
-534.7917648317
 10
263.9971781689
 20
-541.2452081503
 10
261.8968743997
 20
-547.5573847355
 10
259.5749456602
 20
-553.7123503448
 10
257.03729281
 20
-559.6945556165
 10
254.2903084474
 20
-565.4888870479
 10
251.3409290629
 20
-571.0807116987
 10
248.1966052371
 20
-576.4558958174
 10
244.8652867394
 20
-581.6008718969
 10
241.6041899639
 20
-586.1710580351
  0
INSERT
  5
D2
330
1F
100
AcDbEntity
  8
FORMAT
 62
     7
100
AcDbBlockReference
  2
SW_CENTERMARKSYMBOL_1
 10
128.0388493257
 20
-485.321794665
 30
0.0
  0
LINE
  5
D3
330
1F
100
AcDbEntity
  8
0
  6
Continuous
 62
     7
370
    25
100
AcDbLine
 10
615.1664634817
 20
-604.5797840836
 30
0.0
 11
615.1664634817
 21
-754.6284327514
 31
0.0
  0
LINE
  5
D4
330
1F
100
AcDbEntity
  8
0
  6
Continuous
 62
     7
370
    25
100
AcDbLine
 10
930.1664669415
 20
-754.6284327514
 30
0.0
 11
930.1664669415
 21
-604.5797840836
 31
0.0
  0
LINE
  5
D5
330
1F
100
AcDbEntity
  8
0
  6
Continuous
 62
     7
370
    25
100
AcDbLine
 10
764.2537909298
 20
-250.8809417022
 30
0.0
 11
668.8867839101
 21
-416.0614609924
 31
0.0
  0
LINE
  5
D6
330
1F
100
AcDbEntity
  8
0
  6
Continuous
 62
     7
370
    25
100
AcDbLine
 10
941.6847844394
 20
-573.5614544112
 30
0.0
 11
1037.0517914591
 21
-408.3809472884
 31
0.0
  0
SPLINE
  5
D7
330
1F
100
AcDbEntity
  8
0
  6
Continuous
 62
     7
370
    25
100
AcDbSpline
210
0.0
220
0.0
230
1.0
 70
     8
 71
     3
 72
    28
 73
    24
 74
     0
 42
0.000000001
 43
0.00000001
 40
0.0
 40
0.0
 40
0.0
 40
0.0
 40
0.0288745647413876
 40
0.0785076406982417
 40
0.1281782648782213
 40
0.1779059284042131
 40
0.2277110096971225
 40
0.2776134886158066
 40
0.327632187315881
 40
0.3777837123882995
 40
0.4280829176553625
 40
0.4785410039883681
 40
0.529165403510681
 40
0.5799587056317029
 40
0.6309174983111073
 40
0.6820312321677281
 40
0.7332816744275635
 40
0.7846417760577638
 40
0.8360753550363731
 40
0.8875228071200151
 40
0.9389267159935673
 40
0.9866468367439759
 40
1.0
 40
1.0
 40
1.0
 40
1.0
 10
668.8867839101244
 20
-416.0614609923538
 30
0.0
 10
667.9179678449794
 20
-417.7554158691628
 30
0.0
 10
665.2838341627474
 20
-422.3611441985297
 30
0.0
 10
661.151552420006
 20
-429.9740035633764
 30
0.0
 10
656.547954891741
 20
-438.9231151845098
 30
0.0
 10
652.1591725611793
 20
-447.9801226913651
 30
0.0
 10
647.9853246930367
 20
-457.1382502424671
 30
0.0
 10
644.0316857607371
 20
-466.3937070077586
 30
0.0
 10
640.3026449634566
 20
-475.7418738413086
 30
0.0
 10
636.8032760279042
 20
-485.1781750798069
 30
0.0
 10
633.5391312658829
 20
-494.6977065843343
 30
0.0
 10
630.5162504807158
 20
-504.2951828270745
 30
0.0
 10
627.7410298987853
 20
-513.9646707835486
 30
0.0
 10
625.2204562460539
 20
-523.6995097595765
 30
0.0
 10
622.9617883810727
 20
-533.4920134104041
 30
0.0
 10
620.9726637415847
 20
-543.3333149419826
 30
0.0
 10
619.2608630344184
 20
-553.2131426137344
 30
0.0
 10
617.834100162216
 20
-563.1196710543176
 30
0.0
 10
616.700256012046
 20
-573.0384688383501
 30
0.0
 10
615.8654665022019
 20
-582.9532855706284
 30
0.0
 10
615.3514401785278
 20
-592.6161649538689
 30
0.0
 10
615.1789325822001
 20
-599.821057722802
 30
0.0
 10
615.1687006156858
 20
-603.7260008879324
 30
0.0
 10
615.1664634816997
 20
-604.5797840836091
 30
0.0
  0
SPLINE
  5
D8
330
1F
100
AcDbEntity
  8
0
  6
Continuous
 62
     7
370
    25
100
AcDbSpline
210
0.0
220
0.0
230
1.0
 70
     8
 71
     3
 72
    24
 73
    20
 74
     0
 42
0.000000001
 43
0.00000001
 40
0.0
 40
0.0
 40
0.0
 40
0.0
 40
0.044637054681349
 40
0.1082393693430361
 40
0.170242436669221
 40
0.2309845711169618
 40
0.2907791393423004
 40
0.3499104613952667
 40
0.4086300220004564
 40
0.4671540405102232
 40
0.5256618385660985
 40
0.5842929288011858
 40
0.6431133963045802
 40
0.7022003170608649
 40
0.761595343379188
 40
0.8213076433220405
 40
0.8813187173590987
 40
0.9415874145941838
 40
0.9999999999999999
 40
0.9999999999999999
 40
0.9999999999999999
 40
0.9999999999999999
 10
930.166098156618
 20
-604.7008573227953
 30
0.0
 10
930.1659844025336
 20
-604.7008470431265
 30
0.0
 10
930.1657085628651
 20
-604.7008221161933
 30
0.0
 10
930.1874329160482
 20
-604.3589488327501
 30
0.0
 10
930.2520495557122
 20
-603.7278269779049
 30
0.0
 10
930.3754773740425
 20
-602.809789972864
 30
0.0
 10
930.572186836766
 20
-601.6307850727952
 30
0.0
 10
930.8559149856736
 20
-600.200761376287
 30
0.0
 10
931.238658480712
 20
-598.5352161836054
 30
0.0
 10
931.7309080124512
 20
-596.6500005012705
 30
0.0
 10
932.3412984144295
 20
-594.5630615399239
 30
0.0
 10
933.0763095987821
 20
-592.294804545348
 30
0.0
 10
933.9401040857986
 20
-589.8678611723451
 30
0.0
 10
934.9342304070652
 20
-587.3068863091662
 30
0.0
 10
936.0579485283469
 20
-584.6379808064153
 30
0.0
 10
937.3070270565149
 20
-581.8886196299155
 30
0.0
 10
938.6767819841249
 20
-579.0891411542005
 30
0.0
 10
940.1330691292634
 20
-576.2974899429075
 30
0.0
 10
941.174132264724
 20
-574.4638629140935
 30
0.0
 10
941.6865229969419
 20
-573.5613878730452
 30
0.0
  0
LWPOLYLINE
  5
D9
330
1F
100
AcDbEntity
  8
0
  6
Continuous
 62
     7
370
    25
100
AcDbPolyline
 90
      134
 70
   128
 43
0.0
 10
661.2971480177
 20
-690.3362944319
 10
666.6807487119
 20
-687.3718626417
 10
672.3008590807
 20
-684.5575142268
 10
678.1449147534
 20
-681.8995170442
 10
684.1998811587
 20
-679.4038021209
 10
690.452259451
 20
-677.0759480661
 10
696.8880858528
 20
-674.9211449561
 10
703.4929975083
 20
-672.9441928128
 10
710.2522693623
 20
-671.149516811
 10
717.1508154772
 20
-669.5411178562
 10
724.1732285457
 20
-668.122574105
 10
731.3038641844
 20
-666.8970652965
 10
738.5267803479
 20
-665.867310404
 10
745.8258874769
 20
-665.0356269418
 10
753.1848747409
 20
-664.4038518895
 10
760.5873417474
 20
-663.973405561
 10
768.0167563953
 20
-663.7452490251
 10
775.4565497045
 20
-663.7198841059
 10
782.890115817
 20
-663.8973777132
 10
790.3008699476
 20
-664.2773223051
 10
797.6722694585
 20
-664.858878467
 10
804.9878770786
 20
-665.640744498
 10
812.231371441
 20
-666.6211746592
 10
819.3865628873
 20
-667.7979882972
 10
826.4375199089
 20
-669.1685455142
 10
833.3684822187
 20
-670.7298064735
 10
840.163995094
 20
-672.4782751351
 10
846.8088988404
 20
-674.4100539996
 10
853.2883630355
 20
-676.5208273812
 10
859.5879234077
 20
-678.8058948622
 10
865.6935279343
 20
-681.2601492437
 10
871.5915605491
 20
-683.8781145618
 10
877.2688398252
 20
-686.6539574935
 10
882.7127202263
 20
-689.5814728146
 10
887.9110379414
 20
-692.6541372891
 10
892.8522017641
 20
-695.86508914
 10
897.5251894703
 20
-699.2071624544
 10
901.9195608246
 20
-702.6729068576
 10
906.0255265628
 20
-706.2545786738
 10
909.8339131601
 20
-709.9441935801
 10
913.3362161726
 20
-713.7335209035
 10
916.5246437017
 20
-717.6140965468
 10
919.3920623933
 20
-721.5772648075
 10
921.9320738289
 20
-725.6141859807
 10
924.1390303309
 20
-729.7158454836
 10
926.0079691079
 20
-733.8731009965
 10
927.534765037
 20
-738.0766611731
 10
928.7159726133
 20
-742.3171647158
 10
929.5489840007
 20
-746.5851317142
 10
930.0319236644
 20
-750.8710488028
 10
930.163722128
 20
-755.1653509134
 10
929.9440790954
 20
-759.4584547292
 10
929.3734897919
 20
-763.740779975
 10
928.4532291597
 20
-768.0027767891
 10
927.185341321
 20
-772.2349257235
 10
925.5726606514
 20
-776.4277864054
 10
923.6187907063
 20
-780.5720036199
 10
921.3280884163
 20
-784.6583346825
 10
918.7056588184
 20
-788.6776524801
 10
915.7573682271
 20
-792.6209986951
 10
912.4897731114
 20
-796.4795640362
 10
908.9101885838
 20
-800.2447460246
 10
905.0265909354
 20
-803.9081444317
 10
900.8476400264
 20
-807.4615726841
 10
896.3826687496
 20
-810.8971126084
 10
891.6416349565
 20
-814.2070935214
 10
886.6351298538
 20
-817.3841360451
 10
881.3743105026
 20
-820.4211424121
 10
875.8709151294
 20
-823.3113362884
 10
870.1372387602
 20
-826.0482768397
 10
864.1860642378
 20
-828.6258498926
 10
858.0306790147
 20
-831.0383069018
 10
851.684799256
 20
-833.2802601029
 10
845.1626060591
 20
-835.3467102651
 10
838.4786506234
 20
-837.2330527734
 10
831.647834494
 20
-838.9350647035
 10
824.6854174644
 20
-840.4489610861
 10
817.6069174773
 20
-841.7713553702
 10
810.4281448692
 20
-842.8993004805
 10
803.1651101742
 20
-843.8302812146
 10
795.8340188556
 20
-844.5622172842
 10
788.4512238906
 20
-845.093472439
 10
781.0332152336
 20
-845.4228666326
 10
773.5965355228
 20
-845.5496638564
 10
766.1577800796
 20
-845.4735782229
 10
758.7335494942
 20
-845.1947830893
 10
751.3404127462
 20
-844.7138958514
 10
743.9948492535
 20
-844.0319992321
 10
736.7132804819
 20
-843.1505987034
 10
729.5119224313
 20
-842.0716833128
 10
722.4068699296
 20
-840.7976344431
 10
715.4139596551
 20
-839.3313170528
 10
708.5488070151
 20
-837.6759914767
 10
701.8267244866
 20
-835.8353514433
 10
695.2627058109
 20
-833.8135149502
 10
688.8714128229
 20
-831.6149801647
 10
682.6671030113
 20
-829.2446565977
 10
676.6636071277
 20
-826.7078400126
 10
670.8743390653
 20
-824.0101816311
 10
665.3122046501
 20
-821.1577084728
 10
659.9896169521
 20
-818.1567835324
 10
654.9184622058
 20
-815.0140982707
 10
650.1100402117
 20
-811.7366747066
 10
645.575099898
 20
-808.3318129526
 10
641.3237459717
 20
-804.8071224845
 10
637.3654641077
 20
-801.1704636901
 10
633.709101193
 20
-797.4299486294
 10
630.3627994719
 20
-793.5939273486
 10
627.3340347417
 20
-789.6709612683
 10
624.6295584006
 20
-785.669801894
 10
622.255426424
 20
-781.599371047
 10
620.2169045337
 20
-777.4687669474
 10
618.5185656628
 20
-773.2871866594
 10
617.1641872226
 20
-769.0639762739
 10
616.1567932495
 20
-764.8085579154
 10
615.4986385999
 20
-760.5304206185
 10
615.19117734
 20
-756.2391142448
 10
615.2351154296
 20
-751.9442129869
 10
615.6303369648
 20
-747.6553032027
 10
616.3759726668
 20
-743.3819499607
 10
617.4703577353
 20
-739.1336970398
 10
618.9110318478
 20
-734.9200121851
 10
620.6948129173
 20
-730.7503114384
 10
622.8176864565
 20
-726.6338831048
 10
625.2749425551
 20
-722.5799303312
 10
628.0610731468
 20
-718.5974844278
 10
631.1698800107
 20
-714.6954398439
 10
634.5944326244
 20
-710.8825055058
 10
638.3270655299
 20
-707.1671820069
 10
642.359463944
 20
-703.5577608474
 10
646.6826374174
 20
-700.0623031446
 10
651.2869224677
 20
-696.688601616
 10
656.1620451423
 20
-693.4441809595
 10
661.2971480177
 20
-690.3362944319
  0
LWPOLYLINE
  5
DA
330
1F
100
AcDbEntity
  8
0
  6
Continuous
 62
     7
370
    25
100
AcDbPolyline
 90
      126
 70
   128
 43
0.0
 10
674.5200473884
 20
-697.9697117568
 10
669.7127116635
 20
-700.8880538693
 10
665.1654351648
 20
-703.9421423993
 10
660.8897262869
 20
-707.1242752996
 10
656.896378245
 20
-710.4264091308
 10
653.1954674285
 20
-713.8401965079
 10
649.7963557062
 20
-717.3570212659
 10
646.7076265473
 20
-720.96799884
 10
643.9370797528
 20
-724.6640036378
 10
641.4917090655
 20
-728.4357002134
 10
639.3776995354
 20
-732.2735630359
 10
637.6003932754
 20
-736.1678962587
 10
636.1642710226
 20
-740.1088626116
 10
635.0729679424
 20
-744.0865046913
 10
634.3292341169
 20
-748.0907799361
 10
633.9349556174
 20
-752.1115667092
 10
633.891122895
 20
-756.1387129603
 10
634.1978518534
 20
-760.1620423081
 10
634.8543575076
 20
-764.1713935781
 10
635.8589961304
 20
-768.1566390508
 10
637.2092178377
 20
-772.1077118338
 10
638.9016192713
 20
-776.0146301927
 10
640.9319198919
 20
-779.867526444
 10
643.2949988575
 20
-783.6566621619
 10
645.9848765839
 20
-787.3724722779
 10
648.994759526
 20
-791.0055726844
 10
652.3170559827
 20
-794.5467754411
 10
655.943361609
 20
-797.9871412389
 10
659.8645120994
 20
-801.3179854823
 10
664.0706161156
 20
-804.5308851324
 10
668.5510473832
 20
-807.6177228068
 10
673.294480007
 20
-810.5707071661
 10
678.2889358032
 20
-813.3823759077
 10
683.5217969766
 20
-816.045627415
 10
688.9798474445
 20
-818.5537324475
 10
694.6492939922
 20
-820.9003585193
 10
700.5158205207
 20
-823.0795768848
 10
706.5645992417
 20
-825.0858811666
 10
712.7803637765
 20
-826.9142052239
 10
719.1474091557
 20
-828.5599231525
 10
725.6496405515
 20
-830.0188895825
 10
732.270649669
 20
-831.2874107855
 10
738.9936884041
 20
-832.3622842123
 10
745.801800553
 20
-833.2407954517
 10
752.6777638596
 20
-833.9207273541
 10
759.6042348958
 20
-834.4003585116
 10
766.5636911093
 20
-834.6784784638
 10
773.5385625327
 20
-834.7543846573
 10
780.5112370515
 20
-834.6278854865
 10
787.4640972833
 20
-834.2993033353
 10
794.379567992
 20
-833.7694654529
 10
801.2401951141
 20
-833.0397069951
 10
808.0286457581
 20
-832.1118771071
 10
814.72775562
 20
-830.9883176339
 10
821.3206238136
 20
-829.6718631205
 10
827.7905970652
 20
-828.1658499357
 10
834.1213039584
 20
-826.47406609
 10
840.2967813744
 20
-824.600799897
 10
846.3014231254
 20
-822.5507783862
 10
852.1200484435
 20
-820.3291764269
 10
857.7379638834
 20
-817.9416053232
 10
863.1409830796
 20
-815.3941014087
 10
868.3154655994
 20
-812.693103617
 10
873.2483235295
 20
-809.8454253485
 10
877.9270958906
 20
-806.8582601734
 10
882.3399802481
 20
-803.7391635833
 10
886.4758228336
 20
-800.4960100323
 10
890.3241672775
 20
-797.1369891349
 10
893.8752934627
 20
-793.6705832366
 10
897.1202372815
 20
-790.1055560081
 10
900.0508103914
 20
-786.4509167098
 10
902.6595844104
 20
-782.7158806541
 10
904.939997601
 20
-778.9098988586
 10
906.8862705766
 20
-775.0425850534
 10
908.4934932293
 20
-771.1236959125
 10
909.7576089251
 20
-767.1631401777
 10
910.6754145033
 20
-763.1709239143
 10
911.2445971557
 20
-759.1571231387
 10
911.4637238895
 20
-755.1318838185
 10
911.3322362589
 20
-751.1053762525
 10
910.8504661702
 20
-747.0877676976
 10
910.0196306139
 20
-743.0892010803
 10
908.8418263955
 20
-739.1197919546
 10
907.3200354047
 20
-735.1895524686
 10
905.458098273
 20
-731.3084248189
 10
903.2607170081
 20
-727.4861976138
 10
900.7334391891
 20
-723.7325393279
 10
897.8826632343
 20
-720.0569222682
 10
894.7155699131
 20
-716.468637781
 10
891.240172395
 20
-712.9767521522
 10
887.4652464442
 20
-709.5900784747
 10
883.4003304193
 20
-706.3171766484
 10
879.0556943219
 20
-703.1663111813
 10
874.4423075279
 20
-700.1454447269
 10
869.5718266866
 20
-697.2622067672
 10
864.4565534919
 20
-694.5238814004
 10
859.1094144314
 20
-691.9373834847
 10
853.5439059634
 20
-689.5092513204
 10
847.7740893302
 20
-687.2456193251
 10
841.8145552438
 20
-685.1521976468
 10
835.680347495
 20
-683.2342767264
 10
829.3869510994
 20
-681.4967082891
 10
822.9502817606
 20
-679.9438749307
 10
816.3865949913
 20
-678.5796984811
 10
809.7124597713
 20
-677.407630881
 10
802.9447453768
 20
-676.4306283295
 10
796.1005449889
 20
-675.6511619293
 10
789.1971493522
 20
-675.0711963972
 10
782.2519967254
 20
-674.6922037501
 10
775.2826307342
 20
-674.5151328915
 10
768.306652956
 20
-674.5404369836
 10
761.3416913104
 20
-674.7680491164
 10
754.4053315699
 20
-675.197397515
 10
747.5151068234
 20
-675.8273933733
 10
740.6884131827
 20
-676.6564491029
 10
733.9424992456
 20
-677.6824661674
 10
727.2944055096
 20
-678.9028578924
 10
720.760927494
 20
-680.3145403417
 10
714.3585656899
 20
-681.9139429619
 10
708.1034913163
 20
-683.6970283513
 10
702.0115120756
 20
-685.6592937806
 10
696.0980181528
 20
-687.7957841184
 10
690.3779348008
 20
-690.1010948731
 10
684.8657216813
 20
-692.5694090688
 10
679.5753119496
 20
-695.194495915
 10
674.5200473884
 20
-697.9697117568
  0
LWPOLYLINE
  5
DB
330
1F
100
AcDbEntity
  8
0
  6
Continuous
 62
     7
370
    25
100
AcDbPolyline
 90
      134
 70
   128
 43
0.0
 10
789.2834713663
 20
-265.3388076965
 10
793.1266528212
 20
-267.5581270438
 10
797.209765748
 20
-269.9159664888
 10
801.5236958906
 20
-272.4070385983
 10
806.0588232309
 20
-275.025788308
 10
810.8050325253
 20
-277.7663990082
 10
815.7517238413
 20
-280.6227256308
 10
820.887844168
 20
-283.5884345714
 10
826.2019717093
 20
-286.6568698492
 10
831.6822315908
 20
-289.8211991168
 10
837.3163801529
 20
-293.0743406588
 10
843.0918681714
 20
-296.4090728934
 10
848.9957881741
 20
-299.8179187921
 10
855.0149798075
 20
-303.2933283775
 10
861.1359982269
 20
-306.8274779778
 10
867.3452036584
 20
-310.4125044348
 10
873.6287350573
 20
-314.0404290662
 10
879.972557523
 20
-317.7031363684
 10
886.3625255194
 20
-321.3924591899
 10
892.7843881434
 20
-325.1001696073
 10
899.2237943932
 20
-328.8179819592
 10
905.6664038034
 20
-332.5376167339
 10
912.0978232253
 20
-336.2507640577
 10
918.5037069254
 20
-339.9491414961
 10
924.8697565853
 20
-343.6244940463
 10
931.1817713513
 20
-347.268623038
 10
937.4256451999
 20
-350.8733846083
 10
943.5874933788
 20
-354.4307627106
 10
949.6535075266
 20
-357.9327854493
 10
955.6101927495
 20
-361.3716619766
 10
961.4442662046
 20
-364.7397239265
 10
967.1426597347
 20
-368.0294269277
 10
972.6927187486
 20
-371.2334654504
 10
978.0820084441
 20
-374.3446608977
 10
983.2985230611
 20
-377.3560824403
 10
988.3306292462
 20
-380.2610143061
 10
993.167094041
 20
-383.0529719371
 10
997.7971084253
 20
-385.7257155811
 10
1002.2103773728
 20
-388.2733022908
 10
1006.3970213988
 20
-390.6900290659
 10
1010.3477036591
 20
-392.9705062445
 10
1014.053620731
 20
-395.1096521735
 10
1017.5064907585
 20
-397.1026863614
 10
1020.6986193077
 20
-398.9451674993
 10
1023.6228730245
 20
-400.6329782459
 10
1026.2727296841
 20
-402.1623541287
 10
1028.642293996
 20
-403.5298926598
 10
1030.7262449206
 20
-404.7325229149
 10
1032.5199779148
 20
-405.7675876692
 10
1034.0194363442
 20
-406.6327460386
 10
1035.2213222182
 20
-407.3260951697
 10
1036.1229170648
 20
-407.8460667978
 10
1036.7222189088
 20
-408.1915063423
 10
1037.0179264663
 20
-408.3616516088
 10
1037.0093285092
 20
-408.3561419058
 10
1036.696461916
 20
-408.1749389612
 10
1036.0800431831
 20
-407.8184577165
 10
1035.1614210097
 20
-407.2875389428
 10
1033.9426605913
 20
-406.5833275746
 10
1032.4264909364
 20
-405.7074126201
 10
1030.6162627195
 20
-404.6617419953
 10
1028.516053648
 20
-403.4486346857
 10
1026.1305314856
 20
-402.0708233289
 10
1023.4650067351
 20
-400.5313507928
 10
1020.5254431755
 20
-398.8336857591
 10
1017.3183946419
 20
-396.9816132185
 10
1013.8510260985
 20
-394.9792466324
 10
1010.131071492
 20
-392.8310522713
 10
1006.166812678
 20
-390.5418370377
 10
1001.9671215683
 20
-388.1167241355
 10
997.5413547631
 20
-385.5610922304
 10
992.8993956986
 20
-382.8806727859
 10
988.0515914258
 20
-380.0814162231
 10
983.0087736851
 20
-377.1695770872
 10
977.7821851481
 20
-374.1516836296
 10
972.3834899552
 20
-371.0344100554
 10
966.8247315684
 20
-367.8247833549
 10
961.1183222345
 20
-364.52992172
 10
955.2769955702
 20
-361.1571957473
 10
949.31378022
 20
-357.7141098136
 10
943.241978783
 20
-354.208362911
 10
937.075141471
 20
-350.6477482661
 10
930.8270344983
 20
-347.0402750104
 10
924.5115979351
 20
-343.3939370051
 10
918.1429193655
 20
-339.7169044749
 10
911.7352180825
 20
-336.0173445394
 10
905.3027871362
 20
-332.3035641814
 10
898.8599775285
 20
-328.5838125266
 10
892.4211718713
 20
-324.8663690591
 10
886.0007317034
 20
-321.1595983732
 10
879.6129869532
 20
-317.4716703296
 10
873.272188524
 20
-313.81094028
 10
866.9924872199
 20
-310.1854562965
 10
860.7878942341
 20
-306.6034108836
 10
854.6722600747
 20
-303.0726968695
 10
848.6592245154
 20
-299.6012739527
 10
842.7622073762
 20
-296.1968713621
 10
836.9943650594
 20
-292.8670722698
 10
831.3685688173
 20
-289.6193012463
 10
825.8973767644
 20
-286.4608081029
 10
820.5929859683
 20
-283.3986158957
 10
815.4672457848
 20
-280.4396320537
 10
810.5315877234
 20
-277.5904132046
 10
805.7970241301
 20
-274.8572800096
 10
801.2741233271
 20
-272.2463575645
 10
796.9729715822
 20
-269.7635534446
 10
792.903169157
 20
-267.4142573235
 10
789.0738013317
 20
-265.2038413632
 10
785.4934081115
 20
-263.1371864438
 10
782.1699789582
 20
-261.2188738083
 10
779.1109396199
 20
-259.4532382946
 10
776.3230994466
 20
-257.844204078
 10
773.8126909037
 20
-256.3953379113
 10
771.5853089853
 20
-255.1099236456
 10
769.6459322877
 20
-253.9907553944
 10
767.9988808631
 20
-253.0403869644
 10
766.6478267556
 20
-252.2609067636
 10
765.5957940016
 20
-251.6540777271
 10
764.8451270195
 20
-251.2212521515
 10
764.3975011465
 20
-250.963371695
 10
764.2539173704
 20
-250.8810434267
 10
764.4146812556
 20
-250.9744242435
 10
764.8794556276
 20
-251.2433303707
 10
765.6471920834
 20
-251.6871369975
 10
766.7161731389
 20
-252.3048999346
 10
768.0840174971
 20
-253.0951822537
 10
769.7476800484
 20
-254.0562489493
 10
771.70345187
 20
-255.1859452775
 10
773.9469496897
 20
-256.4817758461
 10
776.4731791058
 20
-257.9408194416
 10
779.2765029776
 20
-259.5598324545
 10
782.3506730345
 20
-261.3351941352
 10
785.688798267
 20
-263.2629613386
 10
789.2834713663
 20
-265.3388076965
  0
LWPOLYLINE
  5
DC
330
1F
100
AcDbEntity
  8
0
  6
Continuous
 62
     7
370
    25
100
AcDbPolyline
 90
      126
 70
   128
 43
0.0
 10
802.5063707371
 20
-272.9722250214
 10
799.143378864
 20
-271.0301567533
 10
796.0367978805
 20
-269.2361129941
 10
793.1944987106
 20
-267.5946391806
 10
790.6236568553
 20
-266.1098792827
 10
788.3307418558
 20
-264.7855697123
 10
786.3215699771
 20
-263.6250697414
 10
784.6012093779
 20
-262.6313067455
 10
783.1740011835
 20
-261.806788369
 10
782.0435542178
 20
-261.15359948
 10
781.2127186614
 20
-260.6733869555
 10
780.6836071252
 20
-260.3673718511
 10
780.4575472349
 20
-260.2363220163
 10
780.5351132412
 20
-260.2805642605
 10
780.9161049467
 20
-260.5000086838
 10
781.5995635105
 20
-260.8940604614
 10
782.5837556435
 20
-261.461756721
 10
783.8662052183
 20
-262.2016692032
 10
785.4436616593
 20
-263.1118981709
 10
787.312152626
 20
-264.1901819144
 10
789.466952403
 20
-265.4337446553
 10
791.9026135101
 20
-266.8394790518
 10
794.6129904099
 20
-268.4038503805
 10
797.5912289713
 20
-270.1228417757
 10
800.8298112501
 20
-271.9922051812
 10
804.3205581236
 20
-274.0071525968
 10
808.0546450953
 20
-276.1626146339
 10
812.0226457592
 20
-278.4531135144
 10
816.2145317994
 20
-280.8729455763
 10
820.6197164545
 20
-283.4158900159
 10
825.2270729564
 20
-286.0756271381
 10
830.0249593085
 20
-288.8453267991
 10
835.0012603496
 20
-291.7180924677
 10
840.1434004316
 20
-294.6866521876
 10
845.4383952794
 20
-297.7434615239
 10
850.8728626099
 20
-300.8808313634
 10
856.4330816485
 20
-304.0907858501
 10
862.1049990552
 20
-307.3652787335
 10
867.8742967554
 20
-310.6960682687
 10
873.7263919395
 20
-314.0746198774
 10
879.6465068687
 20
-317.4924749677
 10
885.6196925827
 20
-320.9410091069
 10
891.6308394364
 20
-324.411498939
 10
897.6647877351
 20
-327.8951799785
 10
903.7062750513
 20
-331.3832526931
 10
909.740060031
 20
-334.8668931483
 10
915.7508802466
 20
-338.3373077603
 10
921.7235628326
 20
-341.7856937496
 10
927.6430192174
 20
-345.2033942746
 10
933.4943030746
 20
-348.5817676334
 10
939.2626208606
 20
-351.9122724332
 10
944.9334055707
 20
-355.1864736735
 10
950.4923378133
 20
-358.3961340026
 10
955.9253616143
 20
-361.5331376713
 10
961.2187687112
 20
-364.5895452861
 10
966.3591880165
 20
-367.5576485608
 10
971.3336119588
 20
-370.429949031
 10
976.1295018509
 20
-373.1991702123
 10
980.734729937
 20
-375.8583458225
 10
985.1376636869
 20
-378.4007467779
 10
989.3271763327
 20
-380.8199481105
 10
993.2926890154
 20
-383.1098289723
 10
997.0241918585
 20
-385.264657809
 10
1000.5122545045
 20
-387.2789159377
 10
1003.7480471888
 20
-389.1475530563
 10
1006.7234250329
 20
-390.8658655772
 10
1009.4308648242
 20
-392.4294601277
 10
1011.8635177
 20
-393.8344421451
 10
1014.0152302203
 20
-395.0772333678
 10
1015.8805865151
 20
-396.1547178483
 10
1017.4548766741
 20
-397.0641385312
 10
1018.7340967467
 20
-397.8032432697
 10
1019.7150488407
 20
-398.3700992676
 10
1020.3952357554
 20
-398.7633486044
 10
1020.7729400067
 20
-398.9819496805
 10
1020.8472132905
 20
-399.0253779787
 10
1020.6178606776
 20
-398.893483104
 10
1020.0854669556
 20
-398.5866378383
 10
1019.2513808236
 20
-398.1055951727
 10
1018.1176938189
 20
-397.45159782
 10
1016.6872982691
 20
-396.6262778421
 10
1014.9637819245
 20
-395.6317174813
 10
1012.9514964475
 20
-394.4704278742
 10
1010.6555468748
 20
-393.1453551469
 10
1008.0817020565
 20
-391.6598530266
 10
1005.2365131934
 20
-390.0176296337
 10
1002.1271031027
 20
-388.2228691322
 10
998.7613769528
 20
-386.2801100874
 10
995.147832602
 20
-384.1942576191
 10
991.2955685013
 20
-381.9705636333
 10
987.2143297922
 20
-379.6146534533
 10
982.9144450868
 20
-377.1324893119
 10
978.4067533693
 20
-374.5303281486
 10
973.7026454838
 20
-371.8147455719
 10
968.8140098876
 20
-368.9926045393
 10
963.7531798844
 20
-366.0710248917
 10
958.5329660582
 20
-363.0574020891
 10
953.1665382292
 20
-359.9593390491
 10
947.667462414
 20
-356.784667496
 10
942.0496233652
 20
-353.5414032352
 10
936.3272113998
 20
-350.2377385538
 10
930.5146789356
 20
-346.8820171258
 10
924.6267088809
 20
-343.4827157632
 10
918.678176439
 20
-340.0484223672
 10
912.684128035
 20
-336.5878237618
 10
906.6596680455
 20
-333.1096402892
 10
900.6200351906
 20
-329.6226699296
 10
894.5805077029
 20
-326.1357335443
 10
888.5563058629
 20
-322.6576185949
 10
882.5626499513
 20
-319.1971126186
 10
876.6146970287
 20
-315.7629667191
 10
870.7274724463
 20
-312.3638681913
 10
864.9158382368
 20
-309.0083614335
 10
859.1944773084
 20
-305.7049604978
 10
853.5778460303
 20
-302.4620000397
 10
848.0801268168
 20
-299.287668777
 10
842.7152175914
 20
-296.190003407
 10
837.4966632974
 20
-293.1768003917
 10
832.4376400934
 20
-290.2556798376
 10
827.5509342795
 20
-287.434024657
 10
822.8488948823
 20
-284.7189653575
 10
818.3433967765
 20
-282.1173587479
 10
814.0458090744
 20
-279.6357575213
 10
809.9670056629
 20
-277.2804650032
 10
806.1172914465
 20
-275.0574195602
 10
802.5063707371
 20
-272.9722250214
  0
LWPOLYLINE
  5
DD
330
1F
100
AcDbEntity
  8
0
  6
Continuous
 62
     1
370
    25
100
AcDbPolyline
 90
       18
 70
   128
 43
0.0
 10
884.0357824056
 20
-540.2876457642
 10
889.170885281
 20
-543.3955322917
 10
894.0460079555
 20
-546.6399529482
 10
898.6502930059
 20
-550.0136544768
 10
902.9734664792
 20
-553.5091121797
 10
907.0058648934
 20
-557.1185333392
 10
910.7384977988
 20
-560.833856838
 10
914.1630504125
 20
-564.6467911761
 10
917.2718572764
 20
-568.5488357601
 10
920.0579878681
 20
-572.5312816635
 10
922.5152439667
 20
-576.5852344371
 10
924.6381175059
 20
-580.7016627707
 10
926.4218985755
 20
-584.8713635173
 10
927.862572688
 20
-589.0850483721
 10
928.9569577564
 20
-593.333301293
 10
929.7025934585
 20
-597.606654535
 10
930.0978149937
 20
-601.8955643192
 10
930.1664669415
 20
-604.5797840836
  0
LWPOLYLINE
  5
DE
330
1F
100
AcDbEntity
  8
0
  6
Continuous
 62
     1
370
    25
100
AcDbPolyline
 90
       51
 70
   128
 43
0.0
 10
615.1664634817
 20
-604.5797840836
 10
615.3010067589
 20
-600.8224001351
 10
615.7839464225
 20
-596.5364830464
 10
616.6169578099
 20
-592.268516048
 10
617.7981653863
 20
-588.0280125053
 10
619.3249613154
 20
-583.8244523288
 10
621.1939000923
 20
-579.6671968159
 10
623.4008565943
 20
-575.5655373129
 10
625.94086803
 20
-571.5286161397
 10
628.8082867215
 20
-567.5654478791
 10
631.9967142506
 20
-563.6848722357
 10
635.4990172631
 20
-559.8955449123
 10
639.3074038604
 20
-556.205930006
 10
643.4133695987
 20
-552.6242581898
 10
647.8077409529
 20
-549.1585137867
 10
652.4807286591
 20
-545.8164404723
 10
657.4218924818
 20
-542.6054886214
 10
662.620210197
 20
-539.5328241468
 10
668.0640905981
 20
-536.6053088257
 10
673.7413698742
 20
-533.829465894
 10
679.639402489
 20
-531.2115005759
 10
685.7450070156
 20
-528.7572461945
 10
692.0445673878
 20
-526.4721787134
 10
698.5240315829
 20
-524.3614053318
 10
705.1689353292
 20
-522.4296264673
 10
711.9644482046
 20
-520.6811578058
 10
718.8954105143
 20
-519.1198968464
 10
725.9463675359
 20
-517.7493396295
 10
733.1015589823
 20
-516.5725259914
 10
740.3450533446
 20
-515.5920958303
 10
747.6606609648
 20
-514.8102297993
 10
755.0320604756
 20
-514.2286736373
 10
762.4428146063
 20
-513.8487290455
 10
769.8763807187
 20
-513.6712354382
 10
777.316174028
 20
-513.6966003574
 10
784.7455886758
 20
-513.9247568932
 10
792.1480556824
 20
-514.3552032217
 10
799.5070429463
 20
-514.986978274
 10
806.8061500753
 20
-515.8186617363
 10
814.0290662388
 20
-516.8484166288
 10
821.1597018776
 20
-518.0739254373
 10
828.1821149461
 20
-519.4924691884
 10
835.0806610609
 20
-521.1008681433
 10
841.8399329149
 20
-522.8955441451
 10
848.4448445704
 20
-524.8724962884
 10
854.8806709722
 20
-527.0272993984
 10
861.1330492646
 20
-529.3551534531
 10
867.1880156698
 20
-531.8508683765
 10
873.0320713425
 20
-534.508865559
 10
878.6521817114
 20
-537.3232139739
 10
884.0357824056
 20
-540.2876457642
  0
ARC
  5
DF
330
1F
100
AcDbEntity
  8
0
  6
Continuous
 62
     1
370
    25
100
AcDbCircle
 10
772.6664652116
 20
-450.4553395261
 30
0.0
 40
234.2754606159936
100
AcDbArc
 50
257.9915247304
 51
282.0084752696
  0
LWPOLYLINE
  5
E0
330
1F
100
AcDbEntity
  8
0
  6
Continuous
 62
     1
370
    25
100
AcDbPolyline
 90
       22
 70
   128
 43
0.0
 10
884.0357824056
 20
-540.2876457642
 10
889.2072790846
 20
-543.2730585953
 10
894.1914988766
 20
-546.1503501722
 10
898.9773525503
 20
-548.9130702653
 10
903.5541341478
 20
-551.5550751366
 10
907.9116428147
 20
-554.0704640499
 10
912.0401505315
 20
-556.4536214673
 10
915.9304468947
 20
-558.6992429029
 10
919.5738549218
 20
-560.8022953791
 10
922.9622429053
 20
-562.758085101
 10
926.0880428517
 20
-564.5622802681
 10
928.9442926284
 20
-566.2108259029
 10
931.524606988
 20
-567.7000487874
 10
933.8232434222
 20
-569.0266224836
 10
935.8350494789
 20
-570.1876099084
 10
937.5555575921
 20
-571.1803842527
 10
938.9809165935
 20
-572.0027597713
 10
940.1079443961
 20
-572.6528944399
 10
940.9341332624
 20
-573.1293355871
 10
941.4576445361
 20
-573.4310107568
 10
941.6772928371
 20
-573.557255088
 10
941.6847844394
 20
-573.5614544112
  0
LWPOLYLINE
  5
E1
330
1F
100
AcDbEntity
  8
0
  6
Continuous
 62
     1
370
    25
100
AcDbPolyline
 90
       48
 70
   128
 43
0.0
 10
668.8867839101
 20
-416.0614609924
 10
668.898560003
 20
-416.0684235525
 10
669.135400267
 20
-416.2057131897
 10
669.6760271124
 20
-416.5184259277
 10
670.5192691534
 20
-417.0058254508
 10
671.663217187
 20
-417.6668470999
 10
673.1053344175
 20
-418.5000220556
 10
674.8423996567
 20
-419.5034493055
 10
676.8705244463
 20
-420.6749317678
 10
679.1852030247
 20
-422.0118622688
 10
681.7812645005
 20
-423.5112024947
 10
684.6529031453
 20
-425.169648013
 10
687.7937284432
 20
-426.9835142016
 10
691.1967203097
 20
-428.9487134428
 10
694.8542870438
 20
-431.0608920043
 10
698.7582758643
 20
-433.3153144514
 10
702.8999597396
 20
-435.7069564284
 10
707.2701190465
 20
-438.2304818406
 10
711.8589836187
 20
-440.8802641553
 10
716.6563170403
 20
-443.6503863984
 10
721.6514245486
 20
-446.5346730961
 10
726.8331477653
 20
-449.5266689855
 10
732.1899279173
 20
-452.6197241846
 10
737.7098111048
 20
-455.8069303159
 10
743.3805009845
 20
-459.0811752584
 10
749.1893060868
 20
-462.4351370694
 10
755.1232925976
 20
-465.8613539391
 10
761.1692106013
 20
-469.3521572811
 10
767.313567838
 20
-472.8997751465
 10
773.5426560453
 20
-476.4962926818
 10
779.8425720315
 20
-480.133664301
 10
786.1992756278
 20
-483.8037958095
 10
792.5985528094
 20
-487.4984866109
 10
799.0261474048
 20
-491.2095118371
 10
805.4677136806
 20
-494.9285523855
 10
811.9088584878
 20
-498.6473470063
 10
818.3352413613
 20
-502.357579761
 10
824.7325007626
 20
-506.0509712683
 10
831.0863699833
 20
-509.719272626
 10
837.3826587063
 20
-513.3543277623
 10
843.6073293971
 20
-516.9479958718
 10
849.7464973031
 20
-520.4922609176
 10
855.7864488935
 20
-523.9792301091
 10
861.7137169332
 20
-527.40111641
 10
867.5150752142
 20
-530.7502841649
 10
873.1775622636
 20
-534.019262783
 10
878.688575515
 20
-537.2007402775
 10
884.0357824056
 20
-540.2876457642
  0
ENDSEC
  0
SECTION
  2
OBJECTS
  0
DICTIONARY
  5
C
330
0
100
AcDbDictionary
281
     1
  3
ACAD_GROUP
350
D
  3
ACAD_LAYOUT
350
1A
  3
ACAD_MLINESTYLE
350
17
  3
ACAD_PLOTSETTINGS
350
19
  3
ACAD_PLOTSTYLENAME
350
E
  3
ACAD_SCALELIST
350
47
  0
DICTIONARY
  5
D
102
{ACAD_REACTORS
330
C
102
}
330
C
100
AcDbDictionary
281
     1
  0
DICTIONARY
  5
1A
102
{ACAD_REACTORS
330
C
102
}
330
C
100
AcDbDictionary
281
     1
  3
Layout1
350
1E
  3
Layout2
350
26
  3
Model
350
22
  0
DICTIONARY
  5
17
102
{ACAD_REACTORS
330
C
102
}
330
C
100
AcDbDictionary
281
     1
  3
Standard
350
18
  0
DICTIONARY
  5
19
102
{ACAD_REACTORS
330
C
102
}
330
C
100
AcDbDictionary
281
     1
  0
ACDBDICTIONARYWDFLT
  5
E
102
{ACAD_REACTORS
330
C
102
}
330
C
100
AcDbDictionary
281
     1
  3
Normal
350
F
100
AcDbDictionaryWithDefault
340
F
  0
DICTIONARY
  5
47
102
{ACAD_REACTORS
330
C
102
}
330
C
100
AcDbDictionary
281
     1
  3
A0
350
48
  3
A1
350
49
  3
A2
350
4A
  3
A3
350
4B
  3
A4
350
4C
  3
A5
350
4D
  3
A6
350
4E
  3
A7
350
4F
  3
A8
350
50
  3
A9
350
51
  3
B0
350
52
  3
B1
350
53
  3
B2
350
54
  3
B3
350
55
  3
B4
350
56
  3
B5
350
57
  3
B6
350
58
  3
B7
350
59
  3
B8
350
5A
  3
B9
350
5B
  3
C0
350
5C
  3
C1
350
5D
  3
C2
350
5E
  3
C3
350
5F
  3
C4
350
60
  3
C5
350
61
  3
C6
350
62
  3
C7
350
63
  3
C8
350
64
  3
C9
350
65
  3
D0
350
66
  3
D1
350
67
  3
D2
350
68
  0
LAYOUT
  5
1E
102
{ACAD_REACTORS
330
1A
102
}
330
1A
100
AcDbPlotSettings
  1

  2
none_device
  4

  6

 40
0.0
 41
0.0
 42
0.0
 43
0.0
 44
0.0
 45
0.0
 46
0.0
 47
0.0
 48
0.0
 49
0.0
140
0.0
141
0.0
142
1.0
143
1.0
 70
   688
 72
     1
 73
     0
 74
     5
  7

 75
    16
147
1.0
148
0.0
149
0.0
100
AcDbLayout
  1
Layout1
 70
     1
 71
     1
 10
0.0
 20
0.0
 11
420.0
 21
297.0
 12
0.0
 22
0.0
 32
0.0
 14
1.0000000000E+20
 24
1.0000000000E+20
 34
1.0000000000E+20
 15
-1.0000000000E+20
 25
-1.0000000000E+20
 35
-1.0000000000E+20
146
0.0
 13
0.0
 23
0.0
 33
0.0
 16
1.0
 26
0.0
 36
0.0
 17
0.0
 27
1.0
 37
0.0
 76
     0
330
1B
  0
LAYOUT
  5
26
102
{ACAD_REACTORS
330
1A
102
}
330
1A
100
AcDbPlotSettings
  1

  2
none_device
  4

  6

 40
0.0
 41
0.0
 42
0.0
 43
0.0
 44
0.0
 45
0.0
 46
0.0
 47
0.0
 48
0.0
 49
0.0
140
0.0
141
0.0
142
1.0
143
1.0
 70
   688
 72
     1
 73
     0
 74
     5
  7

 75
    16
147
1.0
148
0.0
149
0.0
100
AcDbLayout
  1
Layout2
 70
     1
 71
     2
 10
0.0
 20
0.0
 11
0.0
 21
0.0
 12
0.0
 22
0.0
 32
0.0
 14
0.0
 24
0.0
 34
0.0
 15
0.0
 25
0.0
 35
0.0
146
0.0
 13
0.0
 23
0.0
 33
0.0
 16
1.0
 26
0.0
 36
0.0
 17
0.0
 27
1.0
 37
0.0
 76
     0
330
23
  0
LAYOUT
  5
22
102
{ACAD_REACTORS
330
1A
102
}
330
1A
100
AcDbPlotSettings
  1

  2
none_device
  4
Letter_(8.50_x_11.00_Inches)
  6

 40
6.35
 41
6.35
 42
6.35000508
 43
6.35000508
 44
215.9
 45
279.4
 46
0.0
 47
0.0
 48
0.0
 49
0.0
140
0.0
141
0.0
142
1.0
143
1.0
 70
  1712
 72
     1
 73
     0
 74
     0
  7

 75
     0
147
1.0
148
0.0
149
0.0
100
AcDbLayout
  1
Model
 70
     1
 71
     0
 10
0.0
 20
0.0
 11
279.4
 21
215.9
 12
0.0
 22
0.0
 32
0.0
 14
0.0
 24
0.0
 34
0.0
 15
279.4
 25
215.9
 35
0.0
146
0.0
 13
0.0
 23
0.0
 33
0.0
 16
1.0
 26
0.0
 36
0.0
 17
0.0
 27
1.0
 37
0.0
 76
     0
330
1F
331
29
  0
MLINESTYLE
  5
18
102
{ACAD_REACTORS
330
17
102
}
330
17
100
AcDbMlineStyle
  2
Standard
 70
     0
  3

 62
   256
 51
90.0
 52
90.0
 71
     2
 49
0.5
 62
   256
  6
BYLAYER
 49
-0.5
 62
   256
  6
BYLAYER
  0
ACDBPLACEHOLDER
  5
F
102
{ACAD_REACTORS
330
E
102
}
330
E
  0
SCALE
  5
48
102
{ACAD_REACTORS
330
47
102
}
330
47
100
AcDbScale
 70
     0
300
1:1
140
1.0
141
1.0
290
     1
  0
SCALE
  5
49
102
{ACAD_REACTORS
330
47
102
}
330
47
100
AcDbScale
 70
     0
300
1:2
140
1.0
141
2.0
290
     0
  0
SCALE
  5
4A
102
{ACAD_REACTORS
330
47
102
}
330
47
100
AcDbScale
 70
     0
300
1:4
140
1.0
141
4.0
290
     0
  0
SCALE
  5
4B
102
{ACAD_REACTORS
330
47
102
}
330
47
100
AcDbScale
 70
     0
300
1:5
140
1.0
141
5.0
290
     0
  0
SCALE
  5
4C
102
{ACAD_REACTORS
330
47
102
}
330
47
100
AcDbScale
 70
     0
300
1:8
140
1.0
141
8.0
290
     0
  0
SCALE
  5
4D
102
{ACAD_REACTORS
330
47
102
}
330
47
100
AcDbScale
 70
     0
300
1:10
140
1.0
141
10.0
290
     0
  0
SCALE
  5
4E
102
{ACAD_REACTORS
330
47
102
}
330
47
100
AcDbScale
 70
     0
300
1:16
140
1.0
141
16.0
290
     0
  0
SCALE
  5
4F
102
{ACAD_REACTORS
330
47
102
}
330
47
100
AcDbScale
 70
     0
300
1:20
140
1.0
141
20.0
290
     0
  0
SCALE
  5
50
102
{ACAD_REACTORS
330
47
102
}
330
47
100
AcDbScale
 70
     0
300
1:30
140
1.0
141
30.0
290
     0
  0
SCALE
  5
51
102
{ACAD_REACTORS
330
47
102
}
330
47
100
AcDbScale
 70
     0
300
1:40
140
1.0
141
40.0
290
     0
  0
SCALE
  5
52
102
{ACAD_REACTORS
330
47
102
}
330
47
100
AcDbScale
 70
     0
300
1:50
140
1.0
141
50.0
290
     0
  0
SCALE
  5
53
102
{ACAD_REACTORS
330
47
102
}
330
47
100
AcDbScale
 70
     0
300
1:100
140
1.0
141
100.0
290
     0
  0
SCALE
  5
54
102
{ACAD_REACTORS
330
47
102
}
330
47
100
AcDbScale
 70
     0
300
2:1
140
2.0
141
1.0
290
     0
  0
SCALE
  5
55
102
{ACAD_REACTORS
330
47
102
}
330
47
100
AcDbScale
 70
     0
300
4:1
140
4.0
141
1.0
290
     0
  0
SCALE
  5
56
102
{ACAD_REACTORS
330
47
102
}
330
47
100
AcDbScale
 70
     0
300
8:1
140
8.0
141
1.0
290
     0
  0
SCALE
  5
57
102
{ACAD_REACTORS
330
47
102
}
330
47
100
AcDbScale
 70
     0
300
10:1
140
10.0
141
1.0
290
     0
  0
SCALE
  5
58
102
{ACAD_REACTORS
330
47
102
}
330
47
100
AcDbScale
 70
     0
300
100:1
140
100.0
141
1.0
290
     0
  0
SCALE
  5
59
102
{ACAD_REACTORS
330
47
102
}
330
47
100
AcDbScale
 70
     0
300
1/128" = 1'-0"
140
0.0078125
141
12.0
290
     0
  0
SCALE
  5
5A
102
{ACAD_REACTORS
330
47
102
}
330
47
100
AcDbScale
 70
     0
300
1/64" = 1'-0"
140
0.015625
141
12.0
290
     0
  0
SCALE
  5
5B
102
{ACAD_REACTORS
330
47
102
}
330
47
100
AcDbScale
 70
     0
300
1/32" = 1'-0"
140
0.03125
141
12.0
290
     0
  0
SCALE
  5
5C
102
{ACAD_REACTORS
330
47
102
}
330
47
100
AcDbScale
 70
     0
300
1/16" = 1'-0"
140
0.0625
141
12.0
290
     0
  0
SCALE
  5
5D
102
{ACAD_REACTORS
330
47
102
}
330
47
100
AcDbScale
 70
     0
300
3/32" = 1'-0"
140
0.09375
141
12.0
290
     0
  0
SCALE
  5
5E
102
{ACAD_REACTORS
330
47
102
}
330
47
100
AcDbScale
 70
     0
300
1/8" = 1'-0"
140
0.125
141
12.0
290
     0
  0
SCALE
  5
5F
102
{ACAD_REACTORS
330
47
102
}
330
47
100
AcDbScale
 70
     0
300
3/16" = 1'-0"
140
0.1875
141
12.0
290
     0
  0
SCALE
  5
60
102
{ACAD_REACTORS
330
47
102
}
330
47
100
AcDbScale
 70
     0
300
1/4" = 1'-0"
140
0.25
141
12.0
290
     0
  0
SCALE
  5
61
102
{ACAD_REACTORS
330
47
102
}
330
47
100
AcDbScale
 70
     0
300
3/8" = 1'-0"
140
0.375
141
12.0
290
     0
  0
SCALE
  5
62
102
{ACAD_REACTORS
330
47
102
}
330
47
100
AcDbScale
 70
     0
300
1/2" = 1'-0"
140
0.5
141
12.0
290
     0
  0
SCALE
  5
63
102
{ACAD_REACTORS
330
47
102
}
330
47
100
AcDbScale
 70
     0
300
3/4" = 1'-0"
140
0.75
141
12.0
290
     0
  0
SCALE
  5
64
102
{ACAD_REACTORS
330
47
102
}
330
47
100
AcDbScale
 70
     0
300
1" = 1'-0"
140
1.0
141
12.0
290
     0
  0
SCALE
  5
65
102
{ACAD_REACTORS
330
47
102
}
330
47
100
AcDbScale
 70
     0
300
1-1/2" = 1'-0"
140
1.5
141
12.0
290
     0
  0
SCALE
  5
66
102
{ACAD_REACTORS
330
47
102
}
330
47
100
AcDbScale
 70
     0
300
3" = 1'-0"
140
3.0
141
12.0
290
     0
  0
SCALE
  5
67
102
{ACAD_REACTORS
330
47
102
}
330
47
100
AcDbScale
 70
     0
300
6" = 1'-0"
140
6.0
141
12.0
290
     0
  0
SCALE
  5
68
102
{ACAD_REACTORS
330
47
102
}
330
47
100
AcDbScale
 70
     0
300
1'-0" = 1'-0"
140
12.0
141
12.0
290
     0
  0
ENDSEC
  0
EOF
